Guitar Tabs
song title    band name

Join Us Today!

Don't strum alone...
be a part of the largest online Christian music community. Browse thousands of guitar tabs and chat w/ musicians like yourself.


It's Free!

This tab has been rated a 5.00 out of 5 for accuracy. (1 vote)Sorry, but you must be logged in to rate this tab.
Click here to log-in, or you can click here to register.
(Registration is free)

All songs owned by corresponding publishing company. If you make copies of any song on this website, be sure to report your usage to CCLI.
Submitted by: RockN4TheOne

Played in standard pitch. 


Intro                                               Pre-bend PK
                                                    then release
E--------------------------------------------------------A. H.--
B---------------------------------------------------------------
G---------------------------------------------------------7------
D-9-----------------9------------------9-------------------------
A-7-----------------7------------------7-------------------------
E-0--0--0--0--0--0--0---0--0--0--0--0--0---0--0--0--0--0---------


Note 7 pre-bend pick the note and release

E-----------------------------------------------------------------
B-----------------------------------------------------------------
G---------------------------------------------------------------9-
D-9-----------------9-----------------9-----------------5---7---9-
A-7-----------------7-----------------7-----------------3---5---7-
E-0--0--0--0--0--0--0--0--0--0--0--0--0--0--0--0--0--0----------0-


Verse
E-----------------------------------------------------------------
B-----------------------------------------------------------------
G-------------------------------------------------------------9---
D---------------------9--------------------9------------------9---
A---------------------7--------------------7------------------7---
E-----0---0--0--0--0--0-----0--0--0--0--0--0---0--0--0--0--0--0---


E-----------------------------------------------------------------
B-----------------------------------------------------------------
G------------------2----------------4-----------------9-----------
D------------------2----------------4-----------------9-----------
A------------------0----------------2-----------------7-----------
E----0--0--0--0--0------------------------------------0-----------


                  * artificial Harmonic

E-----------------------------------------------------------------
B--------------------*------*------*-----------------------------
G--------------------5-4----7-5-7--9------------------------------
D------------------------7------------------------------9---------
A-------------------------------------------------------7---------
E----0--0--0--0--0-----------------------0--0--0--0--0--0---------


E-----------------------------------------------------------------
B-----------------------------------------------------------------
G--------------------------------------9-------------------2------
D-----------------9--------------------9-------------------2------
A-----------------7--------------------7-------------------0------
E--0--0--0--0--0--0-----0--0--0--0--0--0----0--0--0--0--0---------


E----------------------------------------------------------------
B----------------------------------------------------------------
G------------4------------9--------------------------------------
D------------4------------9--------------------------------------
A------------2------------7-----------------------3~~ 5~~  7~~ -- 
E-------------------------0--------0--0--0--0--0-----------------

                                                           Je-


E----------------------------------------------------------------
B----------------------------------------------------------------
G---------7----------2---------5-------7--------------5----7---9-
D---------7----------2---------5-------7-------9------5----7---9-
A---------5----------0---------3-------5-------7------3----5---7-
E----------------------------------------------0---------------0-
         sus,          King           King of Kings           Je-

E----------------------chorus------------------------------------
B----------------------------------------------------------------
G---------7----------------------------------9------------------9
D---------7-----------7--------5------7------9------------------9
A---------5-----------4--------3------5------7------------------7
E--------------------------------------------0---x--x--x--x--x--0
         sus



  1st ending                           2nd ending
E-----------------------------     ------------------------------
B-----------------------------     ------------------------------
G-----------------------------     --9---Dive with bar----5------
D-----------------------------     --9--------------------5------
A-----------------------------     --7--------------------3------
E--0--6--5---3--5--0--3--0----     --0---------------------------


Thats it for now....I know this is accurate with the cd.

Enjoy and Keep Rocking for Christ.  I will work on the lead 
another time.





Comments about this tab

No comments/corrections found. Add your own

Complimentary Christian Ringtones
Dadamobile and CGR have teamed up to bring your favorite Christian artists right to your phone. Sign up today and get 10 complementary ringtones!
Tab Country
Did you know CGR has a sister site w/ country guitar tabs? Well we do! Its called Tab Country. It has a great archive with a lot of country tabs.
Rockin Tabs
Are you looking for a site that has rock guitar tabs? Then Rockintabs.com is the place for you. It is a budding site with many rock guitar tabs. Submit your tab today.
Tab Gallery
Tab Gallery has a compilation of christian, rock, and country tabs all in one place. Come visit us.