Guitar Tabs
song title    band name

Join Us Today!

Don't strum alone...
be a part of the largest online Christian music community. Browse thousands of guitar tabs and chat w/ musicians like yourself.


It's Free!

This tab has not yet been rated for accuracy.Sorry, but you must be logged in to rate this tab.
Click here to log-in, or you can click here to register.
(Registration is free)

All songs owned by corresponding publishing company. If you make copies of any song on this website, be sure to report your usage to CCLI.
Submitted by: jkim

I am resubmitting this song because I am tabbing out the entire intro
The previous posting/comment looked alright, but this is how
I have figured things out.


For the ease of everyone, the chords without a capo are:
Intro: D#m, A#m, G#m, A#m
Prechorus: G#m, A#
Chorus: F#, C#, B, C#

Everything goes down one half step with capo 1

Now for the tabs.  Fret numbers are from the nut, not any capo!!

These are the general shapes for the intro:

D#m
e--6----
B--7----
G--8----
D-------
A-------
E-------

A#m
e-------
B--6----
G--6----
D--8----
A-------
E-------

G#m
e-------
B--4----
G--4----
D--6----
A-------
E-------


For the most part, you can just add flourishes if you are feeling 
adventurous, but you can also follow the entire tab out.
Please note that it also includes a partial bass line which may
be difficult if you are just starting out.

Intro:

e--------6-6-6--6-6h7p6------------------------------
B--------7-7-7---------7--------6-6-6--6-6h7p6-------
G--------8-8-8----------8-------6-6-6---------7------
D-------------------------------8-8-8----------8-----
A---4/6----------------------------------------8-----
E----------------------------6-----------------------


e----------------------------------------------------
B----4-4-------------6-6-----------------------------
G----4-4-------------6-6-----------------------------
D----6-6-------------8-8-----------------------------
A-----------6----------------------------------------
E---4----------4/6-----------------------------------

Repeats for most of the verse.  Good luck playing everyone!

Comments about this tab

No comments/corrections found. Add your own

Complimentary Christian Ringtones
Dadamobile and CGR have teamed up to bring your favorite Christian artists right to your phone. Sign up today and get 10 complementary ringtones!
Tab Country
Did you know CGR has a sister site w/ country guitar tabs? Well we do! Its called Tab Country. It has a great archive with a lot of country tabs.
Rockin Tabs
Are you looking for a site that has rock guitar tabs? Then Rockintabs.com is the place for you. It is a budding site with many rock guitar tabs. Submit your tab today.
Tab Gallery
Tab Gallery has a compilation of christian, rock, and country tabs all in one place. Come visit us.