Guitar Tabs
song title    band name

Join Us Today!

Don't strum alone...
be a part of the largest online Christian music community. Browse thousands of guitar tabs and chat w/ musicians like yourself.


It's Free!

This tab has not yet been rated for accuracy.Sorry, but you must be logged in to rate this tab.
Click here to log-in, or you can click here to register.
(Registration is free)

All songs owned by corresponding publishing company. If you make copies of any song on this website, be sure to report your usage to CCLI.
Submitted by: jpguitarman

this song is in drop d (at least thats how i play it)

intro
 p.m...............
d--7---10--4---10-|
a--7---10--4---10-|2x
d--7---10--4---10-|

verse
d--7---10--4--5--10-|              |-7~~~|
a--7---10--4--5--10-|several times |-7~~~|
d--7---10--4--5--10-|              |-7~~~|

chorus
d--7-5-7-10-7-5-7-10-12-10-12-10-5-4-10-5-|
a--7-5-7-10-7-5-7-10-12-10-12-10-5-4-10-5-|several times
d--7-5-7-10-7-5-7-10-12-10-12-10-5-4-10-5-|

post chorus
(pt1)
d--5h7-|  
a--5h7-|  
d--5h7-| 

(pt2)
d--5h77-12-10| 
a--5h77-12-10| 
d--5h77-12-10| 
i havent figured out the riff after this part. sorry ;(

verse
chorus
post chorus (pt1)
bridge

g---------7-|  ----9-7-9---9-10-9-|
d--7-9-10---|  --7-------7--------|
a-----------|2x-------------------|
d-----------|  -------------------|

g---------7-|  
d--7-9-10---|  
a-----------|2x
d-----------|  

g--9-7-9-7----------------7-9-7-9-7------------------------|
d----------10-10-9-7-9-10-----------10-10-9-7-9-7-5-10~~~~~|
a----------------------------------------------------------|
d----------------------------------------------------------|

chorus
outro
d--12-10-7-10-7-5-7-5-4-5-4-5-|
a--12-10-7-10-7-5-7-5-4-5-4-5-|several times
d--12-10-7-10-7-5-7-5-4-5-4-5-|
(idk about ^^^ sorry...)

thats it!!
i think that wuz pretty good 4 my 1st tab!!
plz comment if there are any mistakes or if u kno the rest of the 
post chorus (cuz i wanna kno!)

thats it!!!

Comments about this tab

jpguitarman - 2008-11-25

lol there is more to post chorus pt2 tht i 4got
u do the part thats there 3 times then
d--5-12-10-12-10-
a--5-12-10-12-10-
d--5-12-10-12-10-
then do the other part again
(and the riff i couldnt figure out is probably the same as the outro.) =)


Add a comment/correction

Complimentary Christian Ringtones
Dadamobile and CGR have teamed up to bring your favorite Christian artists right to your phone. Sign up today and get 10 complementary ringtones!
Tab Country
Did you know CGR has a sister site w/ country guitar tabs? Well we do! Its called Tab Country. It has a great archive with a lot of country tabs.
Rockin Tabs
Are you looking for a site that has rock guitar tabs? Then Rockintabs.com is the place for you. It is a budding site with many rock guitar tabs. Submit your tab today.
Tab Gallery
Tab Gallery has a compilation of christian, rock, and country tabs all in one place. Come visit us.