Guitar Tabs
song title    band name

Join Us Today!

Don't strum alone...
be a part of the largest online Christian music community. Browse thousands of guitar tabs and chat w/ musicians like yourself.


It's Free!

This tab has not yet been rated for accuracy.Sorry, but you must be logged in to rate this tab.
Click here to log-in, or you can click here to register.
(Registration is free)

All songs owned by corresponding publishing company. If you make copies of any song on this website, be sure to report your usage to CCLI.
Submitted by: manic dr1ver

Band:Anberlin
Song:Fin
Album:Cities

This song is played on a 12 string Guitar
so it wont sound as good with a normal Guitar.

Tuning:standered

Key: s = slide
     x = dont play that string
     b = bend

Intro: Lead Guitar(pluck)
e|--x---x---x---x----x------x-x-x--|
B|--x---x---x---x----x------x-x-x--|
G|--6---8---9---6----4------x-x-x--|repeat
D|--x---x---x---x----x------7s6s4--|
A|--4---6---7---4----2------x-x-x--|
E|--x---x---x---x----x------5s4s2--|

Intro: Rythm Guitar
C#m7, A2, E, B     |repeat

Verse: Rythm Guitar
C#m7, A2, E, B     x4

Beginning of Chorus: Lead Guitar 
e|----0--0--0--0---|
B|---4--4--4--4----|
G|--6--6--6--6-----|
D|-----------------|
A|-----------------|
E|-----------------| 

Chorus: Rythm Guitar
C#m7, A2, E, B      x2

Chorus: Lead Guitar(intro)
e|--x---x---x---x----x------x-x-x--|
B|--x---x---x---x----x------x-x-x--|
G|--6---8---9---6----4------x-x-x--|
D|--x---x---x---x----x------7s6s4--|
A|--4---6---7---4----2------x-x-x--|
E|--x---x---x---x----x------5s4s2--|

Verse 2 same as Verse 1

Beginning of Chorus 

Chorus

Verse 3 same as Verse 1&2

Bridge: Rythm Guitar
C#m7, A2, E, B      |until distortion

Bridge: Lead Guitar(lead up to distortion)
e|------------------------------------------------------|
b|------------------------------------------------------|
g|-6-6-6-8-8-8-9-9-9-11-11-11-9-9-9-9-9-9-9-9-9-8-8-8-8-|
d|------------------------------------------------------|
a|------------------------------------------------------|
e|------------------------------------------------------|

e|---------------------|
b|---------------------|
g|-6-6-6-4-4-4---------|
d|---------------------|
a|---------------------|
e|---------------------|

e|------------------------------------------------------|
b|------------------------------------------------------|
g|-6-6-6-8-8-8-9-9-9-11-11-11-9-9-9-11-11-11-13-13-13---|
d|------------------------------------------------------|
a|------------------------------------------------------|
e|------------------------------------------------------|

e|-9-9-9-12-12-12-12-12-12-12-14-14-14-14-14/0--|
b|----------------------------------------------|
g|----------------------------------------------|
d|----------------------------------------------|
a|----------------------------------------------|
e|----------------------------------------------|

Choir singing thing: Rythm Guitar(Distortion)
C#m7, A2, E, B  x3

Lead Guitar plays Intro(Distortion)

Solo: Lead Guitar,

Rythm Guitar plays continues playing C#m7, A2, E, B

e|-------------------------------------------------------------|
b|-------------------------------------------------------------|
g|-9-9-9-9-9-9-11-11-11-11-11-11-11-11-11-13-13-13-13b-13b-13b-|
d|-------------------------------------------------------------|
a|-------------------------------------------------------------|
e|-------------------------------------------------------------|

e|-------------------------------------------------------------|
b|-------------------------------------------------------------|
g|-13-13-13-13-13-13b-13b-13b----------------------------------|
d|----------------------------14-14-14-14-14-14-14-13-13-13-13-|
a|-------------------------------------------------------------|
e|-------------------------------------------------------------||

Then Rythm Guitar plays C#m7, A2, E, B x2 or more

Then keep playing C#m7 over and over 

Then the Lead Guitar plays this Outro

e|---------------------------------------------|
B|---------------------------------------------|
G|---9h11p9-8h9p8------------------------------|
D|----------------9h11p9-----------------------|
A|-----------------------9h11p9-7~-------------|
E|---------------------------------------------|

And that is the most perfect tab of this song you will
ever find.






Comments about this tab

No comments/corrections found. Add your own

Complimentary Christian Ringtones
Dadamobile and CGR have teamed up to bring your favorite Christian artists right to your phone. Sign up today and get 10 complementary ringtones!
Tab Country
Did you know CGR has a sister site w/ country guitar tabs? Well we do! Its called Tab Country. It has a great archive with a lot of country tabs.
Rockin Tabs
Are you looking for a site that has rock guitar tabs? Then Rockintabs.com is the place for you. It is a budding site with many rock guitar tabs. Submit your tab today.
Tab Gallery
Tab Gallery has a compilation of christian, rock, and country tabs all in one place. Come visit us.