Guitar Tabs
song title    band name

Join Us Today!

Don't strum alone...
be a part of the largest online Christian music community. Browse thousands of guitar tabs and chat w/ musicians like yourself.


It's Free!

This tab has not yet been rated for accuracy.Sorry, but you must be logged in to rate this tab.
Click here to log-in, or you can click here to register.
(Registration is free)

All songs owned by corresponding publishing company. If you make copies of any song on this website, be sure to report your usage to CCLI.
Submitted by: ahubbard

I did not see that you guys have a tab for this song, so here is my
go at it.

Song Name: Love Song
Album: Third Day
Artist: Third Day
Copyright: 1996 New Spring Publishing / ASCAP


Capo 2nd fret 
Standard Tuning/All Tab And Chords in relation to capo

Intro/Verse:

e-----------------------------3p2-2-2--3-3-----------------------
B------0--0------0--1---1----3----3-3--3-0---------------0-0-----
G-----0---0---0--0--0---0---2-----2-2--0-0---------------0-0-----
D----4----2-2-2--2--0h2-2--0------0----0-0-------0-------2-0h2---
A---2-----4-4-4--2--3---3--------------2-2--0h1h2-2-0h2--2-0h2---
E--0------0-0-0--0---------------------3-3---------------0-0-----

                                                         

e---------------------2-3p2-2--3-3-------------------------------
B--0--1-1---1---------3-3---3--3-0---------------0-0---0---1-----
G--0--0-0---0------0--2-2---2--0-0---------------0-0---0---0-----
D--2--2-0h2-2---0h2---0-0---0--0-0-------0-------2-0h2-2---2-----
A--2--3-3---3--3---------------2-2--0h1h2-2-0h2--2-0h2-2---3-----
E--0---------------------------3-3---------------0-0---0---------



e---------2-3p2-2--3-3--
B--1---1--3-3---3--3-0--
G--0---0--2-2---2--0-0--
D--0h2-2--0-0---0--0-0--
A--3---3-----------2-2--
E------------------3-3--


Pre-Chorus:

Cadd9 G Cadd9 D-Dsus-D


Chorus:

G Dsus*  

Cadd9 G D

G Dsus*

Cadd9 G D


From here he goes back into the 0h1h2 Em to start the second verse
which is the same as the first.  Listen to the song for timing.


Bridge:

Bm  Em  C  G

Bm  Em  C  G


Dsus*:

e-----3h2----0h2--
B----3---3---3----
G---2-----2--2----
D--0---------0----
A-----------------
E-----------------  He plays this several times during the Chorus.




This should be fairly close.  This song as meant a lot to me and
I hope everyone enjoys it.  Please give me any feedback you may
have. Thanks!

Comments about this tab

No comments/corrections found. Add your own

Complimentary Christian Ringtones
Dadamobile and CGR have teamed up to bring your favorite Christian artists right to your phone. Sign up today and get 10 complementary ringtones!
Tab Country
Did you know CGR has a sister site w/ country guitar tabs? Well we do! Its called Tab Country. It has a great archive with a lot of country tabs.
Rockin Tabs
Are you looking for a site that has rock guitar tabs? Then Rockintabs.com is the place for you. It is a budding site with many rock guitar tabs. Submit your tab today.
Tab Gallery
Tab Gallery has a compilation of christian, rock, and country tabs all in one place. Come visit us.