Guitar Tabs
song title    band name

Join Us Today!

Don't strum alone...
be a part of the largest online Christian music community. Browse thousands of guitar tabs and chat w/ musicians like yourself.


It's Free!

This tab has not yet been rated for accuracy.Sorry, but you must be logged in to rate this tab.
Click here to log-in, or you can click here to register.
(Registration is free)

All songs owned by corresponding publishing company. If you make copies of any song on this website, be sure to report your usage to CCLI.
Submitted by: linds4lif

--------------------------------------------------------
  WHEN THE TIME COMES - THE CLASSIC CRIME
--------------------------------------------------------
 Tabbed by: linds4lif
 Email: ruic707@yahoo.com

Tuning: Eb
Intro/verse
(pluck with fingers)
eb|--------------------------------------------------
Bb|----1--1--1--1--1---1--1--1--1--1---0--0--0--0--0-
Gb|--------------------------------------------------
Db|---2--2--2--2--2---2--2--2--2--2------------------ 
Ab|--3--3--3--3--3---0--0--0--0--0----2--2--2--2--2--
Eb|----------------------------------3--3--3--3--3---

   ----------------|
   --0--0--0--0--0-|
   ----------------|
   ----------------|  x2
   -2--2--2--2--2--|
   3--3--3--3--3---|



eb|---------------------------------------------------
Bb|---1--1--1--1--1---1--1--1--1--1---0--0--0--0--0---
Gb|---------------------------------------------------
Db|--2--2--2--2--2---2--2--2--2--2--------------------
Ab|-3--3--3--3--3---0--0--0--0--0----2--2--2--2--2----
Eb|---------------------------------3--3--3--3--3-----
   
   ------------------|
   --0--0--3--1--0h1-|
   ------------------|
   ------------------|
   -2--2--2--2--2----|
   3--3--3--3--3-----|

Bridge/Chorus:(Chords after verse)
 F Am C Am  (strum along with song to get rhythm)


eb|---------------------------------------------------
Bb|-----1--1--1--1--1---1--1--1--1--1---0--0--0--0--0-
Gb|---------------------------------------------------
Db|----2--2--2--2--2---2--2--2--2--2------------------
Ab|---3--3--3--3--3---0--0--0--0--0----2--2--2--2--2--
Eb|-----------------------------------3--3--3--3--3---
 
   ------------------|
   --0--0--3--1--0h1-|
   ------------------|
   ------------------|
   -2--2--2--2--2----|
   3--3--3--3--3-----|

eb|-----------------3---------------------------------
Bb|-----1--1--3--1------1--1--3--1--0---0--0--3--1--0-
Gb|---------------------------------------------------
Db|----2--2--2--2--2---2--2--2--2--2------------------
Ab|---3--3--3--3--3---0--0--0--0--0----2--2--2--2--2--
Eb|-----------------------------------3--3--3--3--3---
  
   ------------------|
   --0--0--3--1--0h1-|
   ------------------|
   ------------------|
   -2--2--2--2--2----|
   3--3--3--3--3-----|

Bridge/Chrous: (Chords after 2nd verse)

use F, Am, C and Am chords as needed (listen to song)


eb|-----------------3---------------------------------
Bb|-----1--1--3--1------1--1--3--1--0---0--0--3--1--0-
Gb|---------------------------------------------------
Db|----2--2--2--2--2---2--2--2--2--2------------------
Ab|---3--3--3--3--3---0--0--0--0--0----2--2--2--2--2--
Eb|-----------------------------------3--3--3--3--3---

   ------------------0-|
   --0--0--3--1--0h1-1-|
   ------------------0-|
   ------------------2-|
   -2--2--2--2--2----3-|
   3--3--3--3--3-----x-|


Notations:
| h  hammer-on
| x  Mute note


Well, that is it...I think i got it about 80% correct, 
but I will make it 100% as soon as I can figure It all out. 
Comments and corrections welcome! ENJOY :)!

Comments about this tab

No comments/corrections found. Add your own

Complimentary Christian Ringtones
Dadamobile and CGR have teamed up to bring your favorite Christian artists right to your phone. Sign up today and get 10 complementary ringtones!
Tab Country
Did you know CGR has a sister site w/ country guitar tabs? Well we do! Its called Tab Country. It has a great archive with a lot of country tabs.
Rockin Tabs
Are you looking for a site that has rock guitar tabs? Then Rockintabs.com is the place for you. It is a budding site with many rock guitar tabs. Submit your tab today.
Tab Gallery
Tab Gallery has a compilation of christian, rock, and country tabs all in one place. Come visit us.