Guitar Tabs
song title    band name

Join Us Today!

Don't strum alone...
be a part of the largest online Christian music community. Browse thousands of guitar tabs and chat w/ musicians like yourself.


It's Free!

This tab has been rated a 4.67 out of 5 for accuracy. (3 votes)Sorry, but you must be logged in to rate this tab.
Click here to log-in, or you can click here to register.
(Registration is free)

All songs owned by corresponding publishing company. If you make copies of any song on this website, be sure to report your usage to CCLI.
Submitted by: manic dr1ver

 
             Key
      b - bend string up
      / - slide up
       - slide down
      ~ - vibrato 
      x - mute that string

Song: A Whisper And A Clamor
Band: Anberlin

                             Intro
d|----------------------------------------------------------------|
A|----------------------------------------------------------------|
F|-------------------10--10--10--10--10--10-10b--10--10---------|x2
C|----------------------------------------------------------------|
G|----------------------------------------------------------------|
C|--0--0--0--0--0-0----------------------------------------------|

                  Chorus
d|--5-5-5--5--5-5-------------------------------|
A|--6-6-6--6--6-6---10-10--10--10-10------------|
F|--7-7-7--7--7-7--10-10--10--10-10---555555---|x2
C|--7-7-7--7--7-7---10-10--10--10-10---555555---|
G|--5-5-5--5--5-5---8--8---8---8--8----333333---|
C|----------------------------------------------|
      

                        Verse
d|--------------------------------------------------------|
A|--------------------------------------------------------|
F|-----------10--10-10--9--9--9--------------0--0--------|x2
C|--------------------------------10--10--10--------------|
G|--------------------------------------------------8--8--|
C|--0--0--0-----------------------------------------------|

d|--------------------------------------------------------|
A|--------------------------------------------------------|
F|-----------10--10-10--9--9--9--------------0--0--------|x2
C|--------------------------------10--10--10--------------|
G|--------------------------------------------------8--8--|
C|--8--8--8-----------------------------------------------|

                 Bridge 1 Acoustic
d|-----------------------------------------------------|
A|--------/6--5----------------------------------------|
F|--------------------/7--5--------/7--5--------0--2--|
C|-----7-------------------------7---------------------|
G|--5---------------0---------5---------------3--------|
C|---------------0-------------------------5-----------|

d|-----------------------------------------------------|
A|--------/6--5----------------------------------0~----|
F|--------------------/7--5--------/7--5-----------2~-|
C|-----7-------------------------7---------------------|
G|--5---------------0---------5---------------3~-------|
C|---------------0-------------------------5~----------|

          Bridge 2 Distorted

                Gtr. 1
d|-----------------------------------|
A|-----------------------------------|
F|--7-7-7-7-3-3-3-3-5-5-5-55-5-5-5--|x2
C|--7-7-7-7-3-3-3-3-5-5-5-5-5-5-5-5--|
G|--5-5-5-5-1-1-1-1-3-3-3-3-3-3-3-3--|
C|-----------------------------------|
   Deaden each chord after strumming


d|-----------------------------------|
A|-----------------------------------|
F|--7-7-7-7-3-3-3-3-5-5-5-55-5-5-5--|x2
C|--7-7-7-7-3-3-3-3-5-5-5-5-5-5-5-5--|
G|--5-5-5-5-1-1-1-1-3-3-3-3-3-3-3-3--|
C|-----------------------------------|
        normal strumming


             Gtr. 2
d|-------------------------------|--------------------------------|
A|-------------------------------|--------------------------------|
F|---10------------10b10b-------|---10--------/--12--------------|
C|---x--x28----------------------|---x--x24-------x--x8-----------|
G|---8---------------------------|---8---------/--10--------------|
C|-------------------------------|--------------------------------|

d|--6-6-6--6--6-6---10-10--10--10-10------------|
A|--7-7-7--7--7-7--10-10--10--10-10---555555---|
F|--7-7-7--7--7-7---10-10--10--10-10---555555---|x2
C|--5-5-5--5--5-5---8--8---8---8--8----333333---|
G|--5-5-5--5--5-5-------------------------------|
C|----------------------------------------------|

Intro   x1
Chorus  x1
Verse   x2
Intro   x1
Chorus  x2
Verse   x2
Chorus  x3
Bridge1 x2
Bridge2 x1
Chorus  x1  
Chorus  x1
Bridge1 x2

Thats the whole thing i think ive missed some parts,
but u guys can figure that out i gotta let u have some fun.
Cya, from Manic Dr1ver

Comments about this tab

No comments/corrections found. Add your own

Complimentary Christian Ringtones
Dadamobile and CGR have teamed up to bring your favorite Christian artists right to your phone. Sign up today and get 10 complementary ringtones!
Tab Country
Did you know CGR has a sister site w/ country guitar tabs? Well we do! Its called Tab Country. It has a great archive with a lot of country tabs.
Rockin Tabs
Are you looking for a site that has rock guitar tabs? Then Rockintabs.com is the place for you. It is a budding site with many rock guitar tabs. Submit your tab today.
Tab Gallery
Tab Gallery has a compilation of christian, rock, and country tabs all in one place. Come visit us.