Guitar Tabs
song title    band name

Join Us Today!

Don't strum alone...
be a part of the largest online Christian music community. Browse thousands of guitar tabs and chat w/ musicians like yourself.


It's Free!

This tab has not yet been rated for accuracy.Sorry, but you must be logged in to rate this tab.
Click here to log-in, or you can click here to register.
(Registration is free)

All songs owned by corresponding publishing company. If you make copies of any song on this website, be sure to report your usage to CCLI.
Submitted by: guitarplayer917

Artist: Petra
Song: Mine Field
Album: On Fire! 2003
Submitted by guitarplayer917
Into
e----------------------------------------------------------------
a----------------------------------------------------------------
d--2-2-2-2-5-4---2-2-7/3/5---------------------------------------
g--2-2-2-2-5-4---2-2-7/3/5-Repeat as needed----------------------
b--0-0-0-0-3-2---0-0-5/1-3---------------------------------------
e----------------------------------------------------------------

Verse 1 and 2
e----------------------------------------------------------------
a-------------3--3-----------------------------------------------
d-2--2--5-----2--2--5----Repeat twice----------------------------
g-2--2--5-55--0--0--5-55-----------------------------------------
b-0--0--3-55--------3-55-----------------------------------------
e---------33----------33-----------------------------------------

Pre-Chorus
e----------------------------------------------------------------
a----------------------------------------------------------------
d-----------------5-----7-----------------7-9-9-9-9-9------------
g-----3-----3-----5-----7-----3-----3-----7-9-9-9-9-9------------
b-----3-----3-3-3-3-5-5-5-----3-----3-5-5-5-7-7-7-7-7------------
e-1-1-1-1-1-1-------------1-1-1-1-1-1----------------------------
Chorus
e-----------------------+---------+----+-------------------------
a------------6-6-4------+-------6/+4---+-------6-6-4--------4---6
d-----3-5----5-5-3-3--3-+-----5-5/+3--3+---3-5-5-5-3-3-33-5-3-3-5
g-----3-5----3-3-1-3--3-+-----5-3/+1--3+---3-5-3-3-1-3-33-5-1-3-3
b-----1-3--3-------1--1-+-3-3-3---+---1+---1-3-------1-11-3---1--
e-3-3-------------------+---------+----+3-3----------------------

e----------------------------------!-!---------------------------
a-----------------4----------------!-!---------------------------
d-----5-----------3-3--------------!-!---------------------------
g-----5-----6-1-1-1-3-6------x-x-3-!-----------------------------
b-3-3-3---6-6-------1-6------x-x-3-!-----------------------------
e-------4---4---------4------x-x-1-!-----------------------------
Guitar Break
e----------------------------------------------------------------
a----------------------------------------------------------------
d-2-2-2-2-5-4---2-2-7-3-5----------------------------------------
g-2-2-2-2-5-4---2-2-7-3-5----------------------------------------
b-0-0-0-0-3-2---0-0-5-1-3----------------------------------------
e----------------------------------------------------------------
Guitar 2 in break
e----------------------------------------------------------------
a-17-15-13-15------13-12-----------------------------------------
d-------------14-13-----------17-14-----17/8----5(harmonic)
g------------------------14-17-----17-14----10-7-----------------
b----------------------------------------------------------------
e----------------------------------------------------------------
Keyboard Solo
Then Guitar solo
e---------10-11-10--------10-11-13-11-10-----------------------
a-13-11-13--------11-13-11--------------11---------------------
d------------------------------------------10(bend)10-8-7-8-5/7
g--------------------------------------------------------------
b--------------------------------------------------------------
e--------------------------------------------------------------

e-----------------------------------------------6(bend)--
a--------------------------------------------------------
d------------------------8---10-10-8-10-8-8-7-8----------
g-8-5-8-------------8------8-----------------------------
b------8-8-6-6-8-10---10---------------------------------
e-----------8--------------------------------------------

e--------------------------------------18-16-18-16-15--------15
a-13-13-13-13-13-13/16-16-16-16-16-16/---------------18-16-15--
d-12-12-12-12-12-12/15-15-15-15-15-15/-------------------------
g--------------------------------------------------------------
b--------------------------------------------------------------
e--------------------------------------------------------------

e-13-15-13-11---------------------15-------15-16-15--15---15----
a------------15-13-11------16-15-----16-15---------16--16-------
d-----------------------17------17----------------------------14
g-----------------------------------------------------------17--
b---------------------15----------------------------------------
e---------------------------------------------------------------

e-17-(17)-(17)---17------------17-18-17-18--20-19-20-19----------
a--------------18--18--------18------------------------20tremelo 
d--------------------17-14-17---------------------------bar down-
g----------------------------------------------------------------
b------------------------------------------CHORUS BEGINS---------
e----------------------------------------------------------------

Outro Solo
e---------------15--15-----------------------------------
a-15-15-13-15-15--15--15--17-17--15-15-13-15-10-13-15-10-15-10-13
d------------------------------17--------------------------------
g----------------------------------------------------------------
b----------------------------------------------------------------
e----------------------------------------------------------------

e-------------------
a-------------------
d-12-7-5-5(harmonic)
g-------7-----------

Really good song with a good message. A few bends and slides not 
put down though.

Comments about this tab

No comments/corrections found. Add your own

Complimentary Christian Ringtones
Dadamobile and CGR have teamed up to bring your favorite Christian artists right to your phone. Sign up today and get 10 complementary ringtones!
Tab Country
Did you know CGR has a sister site w/ country guitar tabs? Well we do! Its called Tab Country. It has a great archive with a lot of country tabs.
Rockin Tabs
Are you looking for a site that has rock guitar tabs? Then Rockintabs.com is the place for you. It is a budding site with many rock guitar tabs. Submit your tab today.
Tab Gallery
Tab Gallery has a compilation of christian, rock, and country tabs all in one place. Come visit us.