Guitar Tabs
song title    band name

Join Us Today!

Don't strum alone...
be a part of the largest online Christian music community. Browse thousands of guitar tabs and chat w/ musicians like yourself.


It's Free!

This tab has not yet been rated for accuracy.Sorry, but you must be logged in to rate this tab.
Click here to log-in, or you can click here to register.
(Registration is free)

All songs owned by corresponding publishing company. If you make copies of any song on this website, be sure to report your usage to CCLI.
Submitted by: kakkabomb

Song: Let God Arise
Artist: Chris Tomlin
Album: Passion God of This City

As done by Daniel on youtube
http://www.youtube.com/watch?v=sQmzpVXY9SI
Added the chorus chords

I have never tabbed a song nor do i have those skills right now
I just watched the video and tabbed it out for others
Please remember that my tab is not relative to the capo

E|--8--  = Fret 8 

(Capo 2: Notes not relative to capo)

Intro - Repeat 6x  (Distortion)

E |-----------------------------------------------
B |-----------------------------------------------
G |-----------------------------------------------
D |-------9-9-9-9-9-------6-6-6-6-6---------------
A |-----------------------------------------------
E |-7-7-7-----------7-7-7-------------------------


Verse (Distortion, Delay, Reverb)

    B (8bars)  G#m (2bars)  F# (2bars)  --> Pre-Chorus
E |-7----------6------------0------------------------
B |-7----------6------------0------------------------
G |-8----------6------------3------------------------
D |-9----------8------------4------------------------
A |-9----------8------------4------------------------
E |-7----------6------------0------------------------


Pre-Chorus  (Delay, Reverb)

    
E |------------------------------------------------------------
B |------------------------------------------------------------
G |------------------------------------------------------------
D |-----9---9------9---9------11---11--------------------------
A |-7-7---7----6-6---6----9-9----9-----14-13-13/11-11/9-9/-----
E |------------------------------------------------------------

E |-------------------------------------------
B |-------------------------------------0-----Build into chorus
G |-------------------------------------11----
D |-----9---9------9---9------11---11---11----
A |-7-7---7----6-6---6----9-9----9----9-9-----
E |-------------------------------------------

Chorus  (Distortion, Reverb - Watch video for rhythm)

     B  B2   E    A2   E     
E |------------------------------------------------------------
B |---------------10---9---------------------------------------
G |--8--6----9----9----9---------------------------------------
D |--4--4----6----7----6---------------------------------------
A |--0--0----0----0----0---------------------------------------
E |------------------------------------------------------------

Riff between Verse and Chorus
    |--|--| |--|--| |-|-|  |--|-|--|-|-|-|-|
E |------------------------------------------------------------
B |-10-10-9-10-10-9-9-10-9-10-9--------------------------------
G |-----------------------------11-9-9-9-9-9-------------------
D |------------------------------------------------------------
A |------------------------------------------------------------
E |------------------------------------------------------------


Bridge             

E |----------------  
B |----------------  Repeat 2x
G |-9---9---11-----  
D |-9---9---11-----  
A |-7---6---9------  
E |----------------

Repeat as needed
       
E |-----------------------------------
B |-----------------------------------
G |-----------------------------------
D |-----9---9------9---9------11---11-
A |-7-7---7----6-6---6----9-9----9----
E |-----------------------------------


Chorus

Intro Riff
  

Comments about this tab

No comments/corrections found. Add your own

Complimentary Christian Ringtones
Dadamobile and CGR have teamed up to bring your favorite Christian artists right to your phone. Sign up today and get 10 complementary ringtones!
Tab Country
Did you know CGR has a sister site w/ country guitar tabs? Well we do! Its called Tab Country. It has a great archive with a lot of country tabs.
Rockin Tabs
Are you looking for a site that has rock guitar tabs? Then Rockintabs.com is the place for you. It is a budding site with many rock guitar tabs. Submit your tab today.
Tab Gallery
Tab Gallery has a compilation of christian, rock, and country tabs all in one place. Come visit us.