Guitar Tabs
song title    band name

Join Us Today!

Don't strum alone...
be a part of the largest online Christian music community. Browse thousands of guitar tabs and chat w/ musicians like yourself.


It's Free!

This tab has been rated a 5.00 out of 5 for accuracy. (1 vote)Sorry, but you must be logged in to rate this tab.
Click here to log-in, or you can click here to register.
(Registration is free)

All songs owned by corresponding publishing company. If you make copies of any song on this website, be sure to report your usage to CCLI.
Submitted by: Followthewolves

Carry me down by Demon Hunter

tuning- Drop B- B,f#,b,e,g#,c#

/-slide

intro

b--8-7--0---3-5--0----------
f#-8-7--0---3-5--0----------
B--8-7--0---3-5--0----------


verse:

b--3-0-3-0--------------
f#-3-0-3-0-------------x6
B--3-0-3-0-------------

pre-chorus:

b--8888888888---333---55---0---000------------------
f#-8888888888---333---55---0---000------------------x2
B--8888888888---333---55---0---000-----------------

chorus(regular):

b--5555--8-8-8-8--8888--000------------
f#-5555--6-6-6-6--8888--000-----------x2
B--5555-----------8888--000------------

b--55--77--88--7-/8-/10---------------
f#-55--77--88--5-/6-/8---------------
B--55--77--88-------------------

b--5555--8-8-8-8--8888--000------------
f#-5555--6-6-6-6--8888--000-----------
B--5555-----------8888--000------------


repeat intro and verse

repeat pre-chorus 4 times

repeat chorus

bridge:

b--8-8-8-8--10-10-10-10-10---55--00000000------------
f#-6-6-6-6--8--8--8--8--8----55--00000000------------
B----------------------------55--00000000------------

b--333333--/5-5---00000000-----------------------
f#-333333--/5-5---00000000-----------------------x5
B--333333--/5-5---00000000-----------------------

(acoustic)

chorus(not the regular)


b--5555--8-8-8-8--8888--000------------
f#-5555--6-6-6-6--8888--000-----------
B--5555-----------8888--000------------

b--55--77--88--7-/8-/10---------------
f#-55--77--88--5-/6-/8---------------
B--55--77--88-------------------

b--5555--8-8-8-8--8888--000------------
f#-5555--6-6-6-6--8888--000-----------
B--5555-----------8888--000------------

the go back and repeat regular chorus


outro:

b--8-7--0---3--5----------
f#-8-7--0---3--5-----------
B--8-7--0---3--5-----------

thatís pretty much it.

If you have any questions send me a message

Comments about this tab

shamgar001 - 2008-08-04

WOO-HOOOOO!
It's finally here!
Good job on this


dogtin1234 - 2008-11-08

Um... Dude did you just not bother with the solo? Or did you forget it?


Followthewolves - 2008-11-11

yea, its kinda both. i dont know the solo and i did forget about the solo. but i am working on it. thanks for reminding me...lol. the bridge part i tabbed is the other guitar during the solo.


Add a comment/correction

Complimentary Christian Ringtones
Dadamobile and CGR have teamed up to bring your favorite Christian artists right to your phone. Sign up today and get 10 complementary ringtones!
Tab Country
Did you know CGR has a sister site w/ country guitar tabs? Well we do! Its called Tab Country. It has a great archive with a lot of country tabs.
Rockin Tabs
Are you looking for a site that has rock guitar tabs? Then Rockintabs.com is the place for you. It is a budding site with many rock guitar tabs. Submit your tab today.
Tab Gallery
Tab Gallery has a compilation of christian, rock, and country tabs all in one place. Come visit us.