Guitar Tabs
song title    band name

Join Us Today!

Don't strum alone...
be a part of the largest online Christian music community. Browse thousands of guitar tabs and chat w/ musicians like yourself.


It's Free!

This tab has not yet been rated for accuracy.Sorry, but you must be logged in to rate this tab.
Click here to log-in, or you can click here to register.
(Registration is free)

All songs owned by corresponding publishing company. If you make copies of any song on this website, be sure to report your usage to CCLI.
Submitted by: buttmonk227

INTRO

|----------------------------------0----------------------|
|-------------------------------------------3-------------|
|----------------------------------------------------2----|
|------------0---------------0----------------------------|
|------------0---------------0----------------------------|
|--0-0----0--0-----0-0----0--0----------------------------|


|----------------------------------0------------------------|
|-------------------------------------------3---------------|
|----------------------------------------------------2------|
|------------0---------------0------------------------------|
|------------0---------------0------------------------------|
|--0-0----0--0-----0-0----0--0------------------------------|


|----------------------------------1----------------------|
|-------------------------------------------1-------------|
|------------3---------------3-----------------------3----|
|------------3---------------3----------------------------|
|--1-1----1--1-----1-1----1--1----------------------------|
|---------------------------------------------------------|


|----------------------------------3----------------------|
|-------------------------------------------3-------------|
|------------5---------------5-----------------------5----|
|------------5---------------5----------------------------|
|--3-3----3--3-----3-3----3--3----------------------------|
|---------------------------------------------------------|


|----------------------------------0----------------------|
|-------------------------------------------3-------------|
|----------------------------------------------------2----|
|------------0---------------0----------------------------|
|------------0---------------0----------------------------|
|--0-0----0--0-----0-0----0--0----------------------------|


|----------------------------------0----------------------|
|-------------------------------------------3-------------|
|----------------------------------------------------2----|
|------------0---------------0----------------------------|
|------------0---------------0----------------------------|
|--0-0----0--0-----0-0----0--0----------------------------|

|----------------------------------1----------------------|
|-------------------------------------------1-------------|
|------------3---------------3-----------------------3----|
|------------3---------------3----------------------------|
|--1-1----1--1-----1-1----1--1----------------------------|
|---------------------------------------------------------|
|----------------------------------3-----------------------|
|-------------------------------------------3--------------|
|------------5---------------5-----------------------5-----|
|------------5---------------5-----------------------------|
|--3-3----3--3-----3-3----3--3-----------------------------|
|--------------------------------------------------------0-|

VERSE

|-----------------------------------------------------------------------------------------------|
|-----------------------------------------------------------------------------------------------|
|----9-----9--10-------------9-----9--10-------------9-----9--10----4----7----7----9------------|
|-----------------------------------------------------------------------------------------------|
|----7-----7--8--------------7-----7--8--------------7-----7--8-----6----5----5----7------------|
|--0----0---------0--0----0-----0---------0--0----0-----0---------0---------0---------0--0------|


|-----------------------------------------------------------------------------------------------|
|-----------------------------------------------------------------------------------------------|
|----9-----9--10-------------9-----9--10-------------9-----9--10-----15----14----14----12-------|
|-----------------------------------------------------------------------------------------------|
|----7-----7--8--------------7-----7--8--------------7-----7--8------13----12----12----10-------|
|--0----0---------0--0----0-----0---------0--0----0-----0---------0------------0----------0--0--|


|-----------------------------------------------------------------------------------------------|
|-----------------------------------------------------------------------------------------------|
|-----6-----6--7--------------6-----6--7---------------6-----6--5----3----5----5----7-----------|
|-----------------------------------------------------------------------------------------------|
|-----4-----4--5--------------4-----4--5---------------4-----4--7----1----3----3----5-----------|
|--0-----0---------0--0----0-----0---------0--0----0-----0--------0---------0---------0--0------|


|-----------------------------------------------------------------------------------------------|
|-----------------------------------------------------------------------------------------------|
|-----6-----6--7--------------6-----6--7---------------6-----6--5----3----3--3--3--6--6--6--6---|
|-----------------------------------------------------------------------------------------------|
|-----4-----4--5--------------4-----4--5---------------4-----4--7----1----1--1--1--4--4--4--4---|
|--0-----0---------0--0----0-----0---------0--0----0-----0--------0-----------------------------|

PRE-CHORUS
|-----------------------------------------------------------------------------------------------|
|-----------------------------------------------------------------------------------------------|
|-----------------------------------------------------------------------------------------------|
|------------------------------------------------------------------------------12/0-------------|
|------------------------------------------------------------------------------12/0-------------|
|--0--0----0--0----0--0----0--0------------------------------------------------12/0-------------|







|-----------------------------------------------------------------------------------------------|
|-----------------------------------------------------------------------------------------------|
|-----------------------------------------------------------------------------------------------|
|---------------------------------------------------------5-------------------------------------|
|---------------------------------------------------5--------5-----1-1-1-1-3-3-3-3--------------|
|--0--0----0--0----0--0----0--0------------------------5-----------1-1-1-1-3-3-3-3--------------|


|-----------------------------------------------------------------------------------------------|
|-----------------------------------------------------------------------------------------------|
|-----------------------------------------------------------------------------------------------|
|------------------------------------------------------------------------------12/0-------------|
|------------------------------------------------------------------------------12/0-------------|
|--0--0----0--0----0--0----0--0------------------------------------------------12/0-------------|


|-----------------------------------------------------------------------------------------------|
|--------------------------------------------------------------------------------10-------------|
|--------------------------------------------------------------------------------7--------------|
|---------------------------------------------------------5----------------------0--------------|
|---------------------------------------------------5--------5-----1-1-1-1-3-3-3-0--------------|
|--0--0----0--0----0--0----0--0------------------------5-----------1-1-1-1-3-3-3-0--------------|


|-----------------------------------------------------------------------------------------------|
|--1010---10--10--10--10--------------10--10--10-----------------------------------------------|
|--7---7---7---10--10--10--------------10--10--10--12----12--12--12--12--12--12--12-------------|
|--0---0---0---0---0---0----8----8--8--8---8---8---10----10--10--10--10--10--10--10-------------|
|--0---0---0---0---0---0----8----8--8--8---8---8---10----10--10--10--10--10--10--10-------------|
|--0---0---0---0---0---0----8----8--8--8---8---8---10----10--10--10--10--10--10--10-------------|


|-----------------------------|
|----------9------10--9-------|
|--10--10-----10---------10---|
|-----------------------------|
|-----------------------------|
|-----------------------------|

CHORUS
|-----------------------------------------------------------------------------------------------|
|--------------------------------------------------------------------9------10--9--------------|
|-----------------------------------------------------------------10-----10---------10----------|
|--0----0--0--0--0--0--3--3--3--3--3--3--8----8--8----8--8--8--8--------------------------------|
|--0----0--0--0--0--0--3--3--3--3--3--3--8----8--8---8--8--8--8--------------------------------|
|--0----0--0--0--0--0--3--3--3--3--3--3--8----8--8----8--8--8--8--------------------------------|

|----------------------------------------------------------------------------------------------|
|----------------------------------------------------------------------------------------------|
|-----------------------------------------------------------------------------------------------|
|--0----0--0--0--0--0--3--3--3--3--3--3--8----8--8--8--8--8--5--5--5--8--8--8-------------------|
|--0----0--0--0--0--0--3--3--3--3--3--3--8----8--8-8--8--8--5--5--5--8--8--8-------------------|
|--0----0--0--0--0--0--3--3--3--3--3--3--8----8--8-8--8--8--5--5--5--8--8--8-------------------|


|----------------------------------------------------------------------------------------------|
|------------------------------------------------------------10--10--10--10--10--10-------------|
|--0----0--0--0--0--0--8--8--8--8--8--8--5----5--5--5--5--5--7---7---7---8---8---8--------------|
|--0----0--0--0--0--0--8--8--8-8--8--8--5----5--5--5--5--5--7---7---7---8---8---8--------------|
|--0----0--0--0--0--0--8--8--8-8--8--8--5----5--5--5--5--5--7---7---7---8---8---8--------------|

|-----------------------------------------------------------------------------------------------|
|----------------------------------------------------------------------------------------------|
|-----------------------------------------------------------------------------------------------|
|--0----0--0--0--0--0--3--3--3--3--3--3--8----8--8--8--8--8--8--8--8--8--8--8--8--8--8----------|
|--0----0--0--0--0--0--3--3--3-3--3--3--8----8--8--8--8--8--8--8--8--8--8--8--8--8--8----------|
|--0----0--0--0--0--0--3--3--3-3--3--3--8----8--8--8--8--8--8--8--8--8--8--8--8--8--8--0-------|

VERSE
|-----------------------------------------------------------------------------------------------|
|-----------------------------------------------------------------------------------------------|
|----9-----9--10-------------9-----9--10-------------9-----9--10----4----7----7----9------------|
|-----------------------------------------------------------------------------------------------|
|----7-----7--8--------------7-----7--8--------------7-----7--8-----6----5----5----7------------|
|--0----0---------0--0----0-----0---------0--0----0-----0---------0---------0---------0--0------|


|-----------------------------------------------------------------------------------------------|
|-----------------------------------------------------------------------------------------------|
|----9-----9--10-------------9-----9--10-------------9-----9--10-----15----14----14----12-------|
|-----------------------------------------------------------------------------------------------|
|----7-----7--8--------------7-----7--8--------------7-----7--8------13----12----12----10-------|
|--0----0---------0--0----0-----0---------0--0----0-----0---------0------------0----------0--0--|


|-----------------------------------------------------------------------------------------------|
|-----------------------------------------------------------------------------------------------|
|-----6-----6--7--------------6-----6--7---------------6-----6--5----3----5----5----7-----------|
|-----------------------------------------------------------------------------------------------|
|-----4-----4--5--------------4-----4--5---------------4-----4--7----1----3----3----5-----------|
|--0-----0---------0--0----0-----0---------0--0----0-----0--------0---------0---------0--0------|


|-----------------------------------------------------------------------------------------------|
|-----------------------------------------------------------------------------------------------|
|-----6-----6--7--------------6-----6--7---------------6-----6--5----3----3--3--3--6--6--6--6---|
|-----------------------------------------------------------------------------------------------|
|-----4-----4--5--------------4-----4--5---------------4-----4--7----1----1--1--1--4--4--4--4---|
|--0-----0---------0--0----0-----0---------0--0----0-----0--------0-----------------------------|

PRE-CHORUS
|-----------------------------------------------------------------------------------------------|
|-----------------------------------------------------------------------------------------------|
|-----------------------------------------------------------------------------------------------|
|------------------------------------------------------------------------------12/0-------------|
|------------------------------------------------------------------------------12/0-------------|
|--0--0----0--0----0--0----0--0------------------------------------------------12/0-------------|







|-----------------------------------------------------------------------------------------------|
|-----------------------------------------------------------------------------------------------|
|-----------------------------------------------------------------------------------------------|
|---------------------------------------------------------5-------------------------------------|
|---------------------------------------------------5--------5-----1-1-1-1-3-3-3-3--------------|
|--0--0----0--0----0--0----0--0------------------------5-----------1-1-1-1-3-3-3-3--------------|


|-----------------------------------------------------------------------------------------------|
|-----------------------------------------------------------------------------------------------|
|-----------------------------------------------------------------------------------------------|
|------------------------------------------------------------------------------12/0-------------|
|------------------------------------------------------------------------------12/0-------------|
|--0--0----0--0----0--0----0--0------------------------------------------------12/0-------------|


|-----------------------------------------------------------------------------------------------|
|--------------------------------------------------------------------------------10-------------|
|--------------------------------------------------------------------------------7--------------|
|---------------------------------------------------------5----------------------0--------------|
|---------------------------------------------------5--------5-----1-1-1-1-3-3-3-0--------------|
|--0--0----0--0----0--0----0--0------------------------5-----------1-1-1-1-3-3-3-0--------------|


|-----------------------------------------------------------------------------------------------|
|--10-10-10-10-10-10--------10-10-10------------------------------------------------------------|
|--7--7--7--10-10-10--------10-10-10--12--12--12--12--12--12--12--12----------------------------|
|--0--0--0--0--0--0--8--8-8-8--8--8---10--10--10--10--10--10--10--10--x--x--x--x--x--x--x--x--x-|
|--0--0--0--0--0--0--8--8-8-8--8--8---10--10--10--10--10--10--10--10--x--x--x--x--x--x--x--x--x-|
|--0--0--0--0--0--0--8--8-8-8--8--8---10--10--10--10--10--10--10--10--x--x--x--x--x--x--x--x--x-|


CHORUS
|-----------------------------------------------------------------------------------------------|
|--------------------------------------------------------------------9------10--9--------------|
|-----------------------------------------------------------------10-----10---------10----------|
|--0----0--0--0--0--0--3--3--3--3--3--3--8----8--8----8--8--8--8--------------------------------|
|--0----0--0--0--0--0--3--3--3--3--3--3--8----8--8---8--8--8--8--------------------------------|
|--0----0--0--0--0--0--3--3--3--3--3--3--8----8--8----8--8--8--8--------------------------------|

|----------------------------------------------------------------------------------------------|
|----------------------------------------------------------------------------------------------|
|-----------------------------------------------------------------------------------------------|
|--0----0--0--0--0--0--3--3--3--3--3--3--8----8--8--8--8--8--5--5--5--8--8--8-------------------|
|--0----0--0--0--0--0--3--3--3--3--3--3--8----8--8-8--8--8--5--5--5--8--8--8-------------------|
|--0----0--0--0--0--0--3--3--3--3--3--3--8----8--8-8--8--8--5--5--5--8--8--8-------------------|


|----------------------------------------------------------------------------------------------|
|------------------------------------------------------------10--10--10--10--10--10-------------|
|--0----0--0--0--0--0--8--8--8--8--8--8--5----5--5--5--5--5--7---7---7---8---8---8--------------|
|--0----0--0--0--0--0--8--8--8-8--8--8--5----5--5--5--5--5--7---7---7---8---8---8--------------|
|--0----0--0--0--0--0--8--8--8-8--8--8--5----5--5--5--5--5--7---7---7---8---8---8--------------|

|-----------------------------------------------------------------------------------------------|
|----------------------------------------------------------------------------------------------|
|-----------------------------------------------------------------------------------------------|
|--0----0--0--0--0--0--3--3--3--3--3--3--8----8--8--8--8--8--8--8--8--8--8--8--8--8--8----------|
|--0----0--0--0--0--0--3--3--3-3--3--3--8----8--8--8--8--8--8--8--8--8--8--8--8--8--8----------|
|--0----0--0--0--0--0--3--3--3-3--3--3--8----8--8--8--8--8--8--8--8--8--8--8--8--8--8--6-------|

|---------------------------------------------------------------------------------------------|
|--------------------------------------------------------------------------------------------|
|---------------------------------------------------------------------------------------------|
|---------------------------------------------------------------------------------------------|
|---------------------------------------------------------------------------------------------|
|--6--0--0--0--0--0--6--0--0--0--0--0--6--0--0--0--0--0--7--5--3--0--6--5--3--6---------------|x4

|---------------------------------------------------------------------------------------------|
|--------------------------------------------------------------------------------------------|
|---------------------------------------------------------------------------------------------|
|---------------------------------------------------------------------------------------------|
|---------------------------------------------------------------------------------------------|
|--0--0-----0-----0--0--0--0--------0------0--0-----0-----0--0--0--0--------0-----------------|

|----------------------------------------------------------------------------------------------|
|--------------------------------------------------------------------------------10-----------|
|---------------------------------------------------------------------------------7------------|
|---------------------------------------------------------------------------------0------------|
|---------------------------------------------------------------------------------0------------|
|--0--0-----0-----0--0--0--0--------0------0--0-----0-----0--0--0--0--0--3--3--3--0------------|

|--------------------------------------------------------------------8--8--8--8--8--8--8--------|
|--10-10-10-10-10-10--------10-10-10---------------------------------8--8--8--8--8--8--8--------|
|--7--7--7--10-10-10--------10-10-10--12--12--12--12--12--12--12--12----------------------------|
|--0--0--0--0--0--0--8--8-8-8--8--8---10--10--10--10--10--10--10--10----------------------------|
|--0--0--0--0--0--0--8--8-8-8--8--8---10--10--10--10--10--10--10--10----------------------------|
|--0--0--0--0--0--0--8--8-8-8--8--8---10--10--10--10--10--10--10--10----------------------------|
CHORUS
|-----------------------------------------------------------------------------------------------|
|--------------------------------------------------------------------9------10--9--------------|
|-----------------------------------------------------------------10-----10---------10----------|
|--0----0--0--0--0--0--3--3--3--3--3--3--8----8--8----8--8--8--8--------------------------------|
|--0----0--0--0--0--0--3--3--3--3--3--3--8----8--8---8--8--8--8--------------------------------|
|--0----0--0--0--0--0--3--3--3--3--3--3--8----8--8----8--8--8--8--------------------------------|

|----------------------------------------------------------------------------------------------|
|----------------------------------------------------------------------------------------------|
|-----------------------------------------------------------------------------------------------|
|--0----0--0--0--0--0--3--3--3--3--3--3--8----8--8--8--8--8--5--5--5--8--8--8-------------------|
|--0----0--0--0--0--0--3--3--3--3--3--3--8----8--8-8--8--8--5--5--5--8--8--8-------------------|
|--0----0--0--0--0--0--3--3--3--3--3--3--8----8--8-8--8--8--5--5--5--8--8--8-------------------|


|----------------------------------------------------------------------------------------------|
|------------------------------------------------------------10--10--10--10--10--10-------------|
|--0----0--0--0--0--0--8--8--8--8--8--8--5----5--5--5--5--5--7---7---7---8---8---8--------------|
|--0----0--0--0--0--0--8--8--8-8--8--8--5----5--5--5--5--5--7---7---7---8---8---8--------------|
|--0----0--0--0--0--0--8--8--8-8--8--8--5----5--5--5--5--5--7---7---7---8---8---8--------------|

|-----------------------------------------------------------------------------------------------|
|----------------------------------------------------------------------------------------------|
|-----------------------------------------------------------------------------------------------|
|--0----0--0--0--0--0--3--3--3--3--3--3--8----8--8--8--8--8--8--8--8--8--8--8--8--8--8----------|
|--0----0--0--0--0--0--3--3--3-3--3--3--8----8--8--8--8--8--8--8--8--8--8--8--8--8--8----------|
|--0----0--0--0--0--0--3--3--3-3--3--3--8----8--8--8--8--8--8--8--8--8--8--8--8--8--8--6-------|

OUTRO
|---------------------------------------------------------------------------------------------|
|--------------------------------------------------------------------------------------------|
|---------------------------------------------------------------------------------------------|
|---------------------------------------------------------------------------------------------|
|---------------------------------------------------------------------------------------------|
|--6--0--0--0--0--0--6--0--0--0--0--0--6--0--0--0--0--0--7--5--3--0--6--5--3--6---------------|
|---------------------------------------------------------------------------------------------|
|--------------------------------------------------------------------------------------------|
|---------------------------------------------------------------------------------------------|
|---------------------------------------------------------------------------------------------|
|---------------------------------------------------------------------------------------------|
|--6--0--0--0--0--0--6--0--0--0--0--0--6--0--0--0--0--0--2--3--5--3--5--6--6--6---------------|
|---------------------------------------------------------------------------------------------|
|--------------------------------------------------------------------------------------------|
|---------------------------------------------------------------------------------------------|
|---------------------------------------------------------------------------------------------|
|---------------------------------------------------------------------------------------------|
|--6--0--0--0--0--0--6--0--0--0--0--0--6--0--0--0--0--0--7--5--3--0--6--5--3--6---------------|
|---------------------------------------------------------------------------------------------|
|--------------------------------------------------------------------------------------------|
|---------------------------------------------------------------------------------------------|
|---------------------------------------------------------------------------------------------|
|---------------------------------------------------------------------------------------------|
|--6--0--0--0--0--0--6--0--0--0--0--0--6--0--0--0--0--0--7--5--3--0--6--5--3--6---------------|





|---------------------------------------------------------------------------------------------|
|--------------------------------------------------------------------------------------------|
|---------------------------------------------------------------------------------------------|
|--------------------------------------------------------------------------------0------------|
|--0-----0---0---0---0-0-0---0-----------0-------0---0---0-----------------------0------------|
|--0-----0---0---0---0-0-0---0-----------0-------0---0---0----------0-0-0-0------0------------|

Comments about this tab

RawkerBear - 2008-06-03

Dude. What tuning is it?


DiscipleRawks - 2008-10-06

i haven't tried your tab yet but i have the video for this song and it's way different than your tab. That riff in the chorus that hits a super hi note (i think you have it as 9's and 10's on the G and B strings) it's actually somewhere around the fifth fret on i think the d and G strings and he uses a pinch harmonic. i can't figure it out exactly though because i'm not good enough at pinch harmonics to play it.

Oh and, i don't know about this tab but i know that this song is in Drop C i've figued out a lot of it myself. i'll post my version out here once i get the pinch harmonic part


sshsguitarist21 - 2008-12-03

Yeah, this tab's in Drop C...And from what I've played in C it looks like the right chords...a few of the high notes might be off, because like the guy above said there's a few harmonics in there...can't tell if they're pinch or just arti

Looks good overall though


Add a comment/correction

Complimentary Christian Ringtones
Dadamobile and CGR have teamed up to bring your favorite Christian artists right to your phone. Sign up today and get 10 complementary ringtones!
Tab Country
Did you know CGR has a sister site w/ country guitar tabs? Well we do! Its called Tab Country. It has a great archive with a lot of country tabs.
Rockin Tabs
Are you looking for a site that has rock guitar tabs? Then Rockintabs.com is the place for you. It is a budding site with many rock guitar tabs. Submit your tab today.
Tab Gallery
Tab Gallery has a compilation of christian, rock, and country tabs all in one place. Come visit us.