Guitar Tabs
song title    band name

Join Us Today!

Don't strum alone...
be a part of the largest online Christian music community. Browse thousands of guitar tabs and chat w/ musicians like yourself.


It's Free!

This tab has been rated a 5.00 out of 5 for accuracy. (1 vote)Sorry, but you must be logged in to rate this tab.
Click here to log-in, or you can click here to register.
(Registration is free)

All songs owned by corresponding publishing company. If you make copies of any song on this website, be sure to report your usage to CCLI.
Submitted by: fireman8ball

Artist:  Casting Crowns
Song:  Alter and the Door  
Album: Alter and the Door  

-Capo the 4th fret, then play regular chord patters
-I played this with the cd and it sounds right on.
-Make sure you palm mute the strings during the verses.
-Also, I played this on my acoustic, not my strat.  Not sure how it sounds 
electric.

Verses
            A2            E             B            
 e|------x----------0----------2--------------------------------------|
 a|------2----------0----------2--------------------------------------|
 d|------2----------1----------4--------------------------------------|
 g|------0----------2----------4--------------------------------------|
 b|------0----------2----------2--------------------------------------|
 e|------0----------0----------2--------------------------------------|


Pre chorus
          C#m       B         A2        F#m        C#m   E  A2  B
 e|------4-------2--------0--------2----------------------------------|
 a|------5-------2--------2--------2----------------------------------|
 d|------6-------4--------2--------2----------------------------------|
 g|------6-------4--------0--------4----------------------------------|
 b|------4-------2--------0--------4----------------------------------|
 e| -----4-------2--------0--------2----------------------------------|
 
Chorus
           A2          E      C#m      B  X2  3rd time A2  E  C#m   B A2 E A2 B
 e|------0-------0-------4-------2------------------------------------|
 a|------2-------0-------5-------2------------------------------------|
 d|------2-------1-------6-------4------------------------------------|
 g|------0-------2-------6-------4------------------------------------|
 b|------0-------2-------4-------2------------------------------------|
 e|------0-------0-------4-------2------------------------------------|


Comments about this tab

fireman8ball - 2008-04-18

Sorry A2 is 002200


Add a comment/correction

Complimentary Christian Ringtones
Dadamobile and CGR have teamed up to bring your favorite Christian artists right to your phone. Sign up today and get 10 complementary ringtones!
Tab Country
Did you know CGR has a sister site w/ country guitar tabs? Well we do! Its called Tab Country. It has a great archive with a lot of country tabs.
Rockin Tabs
Are you looking for a site that has rock guitar tabs? Then Rockintabs.com is the place for you. It is a budding site with many rock guitar tabs. Submit your tab today.
Tab Gallery
Tab Gallery has a compilation of christian, rock, and country tabs all in one place. Come visit us.