Guitar Tabs
song title    band name

Join Us Today!

Don't strum alone...
be a part of the largest online Christian music community. Browse thousands of guitar tabs and chat w/ musicians like yourself.


It's Free!

This tab has been rated a 5.00 out of 5 for accuracy. (1 vote)Sorry, but you must be logged in to rate this tab.
Click here to log-in, or you can click here to register.
(Registration is free)

All songs owned by corresponding publishing company. If you make copies of any song on this website, be sure to report your usage to CCLI.
Submitted by: WellFire

The Test
The Classic Crime
Acoustic EP: Seattle Sessions / 2007 / Tooth & Nail
==========================================================


Guitar 1 -- Finger-Pick(PLUCK)
Guitar 2 -- Strum

***INTRO***
GTR1  (position a D#m barre at fifth fret)

E]--------6--------6--------6-7-6-----[
B]--------------------------------6---[
G]--8--8--8--8--8--8--8--8--8-8-8-8---[ Repeat throughout
D]--8--8-----8--8-----8--8------------[    the INTRO
A]------------------------------------[ 
E]------------------------------------[

GTR 2
B - F#  repeat throughout second half of INTRO


***VERSE***
GTR 1 -ONLY-
  D#m7                      G#                   D#m7     A#m/D#
-------------------------------------------------------------------
-----------7------------7-------------4h6p4------7--------6--------
--------6------------6------------6--------6--------6--------6-----
-----8-----8------8-----8------6--------------6--------8--------8--
--6------------6------------4--------------------6--------6--------
-------------------------------------------------------------------


***PRE-CHORUS***
B - F# - B - F# - B - F# - G# - C#

***CHORUS***
B - F# - B - F# - B - F# - G# - B - C# - F#

***BRIDGE***
D#m - D#sus2 (rpt w/ percussive up strumming) (end w/) B - F# - G#

***OUTRO***
Repeat Tandem Guitar INTRO

Comments about this tab

sirRuss3ll - 2008-06-15

I noticed during the pre-chorus and the chorus there are notes being played that you don't have.
It would be much appreciated if you could decipher those notes for me. This is by far the best tab I've found, but I don't feel right playing it without those missing parts. Thank you. :]


WellFire - 2008-06-24

I noticed that I typed the 'G#' (in the VERSE notation for GTR-1)on the wrong lines (strings). That portion should show as follows.

G#
--------------- ALSO: sirRuss3ll,
--------------- I will try to get around to tabbing out
---------4h6p4- the 2nd GTR for the PRE-CHORUS & CHORUS.
------6-------- I tabbed this one while listening from a
---6----------- notebook confuzer.
4-------------- Poor Speakers = Lost Sound (lesson learned)


WellFire - 2008-06-24

The system twisted my previous comment.

G#
---------------
---------------
---------4h6p4-
------6--------
---6-----------
4--------------


linds4lif - 2008-08-05

hey pretty nice tab, but The Classic Crime always tunes in Eb, Db, or Cb! but nice job, though you did miss a few minor parts that in the background, keep up the good work.


linds4lif - 2008-08-09

In my comment i didnt mean to put Cb as a tuning, it is just supposed to be Eb, Db, and C...sorry!


Add a comment/correction

Complimentary Christian Ringtones
Dadamobile and CGR have teamed up to bring your favorite Christian artists right to your phone. Sign up today and get 10 complementary ringtones!
Tab Country
Did you know CGR has a sister site w/ country guitar tabs? Well we do! Its called Tab Country. It has a great archive with a lot of country tabs.
Rockin Tabs
Are you looking for a site that has rock guitar tabs? Then Rockintabs.com is the place for you. It is a budding site with many rock guitar tabs. Submit your tab today.
Tab Gallery
Tab Gallery has a compilation of christian, rock, and country tabs all in one place. Come visit us.