Guitar Tabs
song title    band name

Join Us Today!

Don't strum alone...
be a part of the largest online Christian music community. Browse thousands of guitar tabs and chat w/ musicians like yourself.


It's Free!

This tab has been rated a 5.00 out of 5 for accuracy. (1 vote)Sorry, but you must be logged in to rate this tab.
Click here to log-in, or you can click here to register.
(Registration is free)

All songs owned by corresponding publishing company. If you make copies of any song on this website, be sure to report your usage to CCLI.
Submitted by: 12thsaint

h=hurry
/=slide
*=palm mute
~=let it ring

Intro
e-----------
B-----------
G-----------
D-3-3h3/8-8- 
A-3-3h3/8-8- 
D-3-3h3/8-8- 

Verse
e----------------------------------
B----------------------------------
G----------------------------------
D-00000000000000005555555555558888-
A-00000000000000005555555555558888-
D-00000000000000005555555555558888-     X4
  ************************

Pre-Chorus
e---------
B---------
G---------
D-5---8---
A-5---8---
D-5---8--- You can figure out the strumming on your own

e-----------------
B-----------------
G-----------------
D-5---0-2-3-0-2-3-
A-5---0-2-3-0-2-3-
D-5---0-2-3-0-2-3-

Chorus
First Guitar
e------------------------------------------------
B------------------------------------------------
G------------------------------------------------
D-0h0--0h0--0h0--0h0-0-0--8h8--8h8--5h5--5h5-5-5-
A-0h0--0h0--0h0--0h0-0-0--8h8--8h8--5h5--5h5-5-5-
D-0h0--0h0--0h0--0h0-0-0--8h8--8h8--5h5--5h5-5-5- x4

Second Guitar
e------------------------------------------------------------
B------------------------------------------------------------
G----------------8h8/7h7h7h7-----------------8h8/7/10h10/5h5-
D----------------*-*-*-*-*-*-----------------*-*-*--*-*-*-*--
A----------------6h6/5h5h5h5-----------------6h6/5/-8h-8/5h5-
D-0h0--0h0--0h0---------------8h8--8h8--5h5------------------ x4

Post-Chorus
e------------------------
B------------------------
G------------------------
D-0h0-0-0h0--0h0-0-0h0h0-
A-0h0-0-0h0--0h0-0-0h0h0-
D-0h0-0-0h0--0h0-0-0h0h0- x2

2nd Verse (same as first)

Pre-Chorus 2
e---------
B---------
G---------
D-5---8---
A-5---8---
D-5---8---

e-----------------------------
B-----------------------------
G-----------------------------
D-5---0-2-3-0-2-3-0-2-3-0-2-3-
A-5---0-2-3-0-2-3-0-2-3-0-2-3-
D-5---0-2-3-0-2-3-0-2-3-0-2-3-


Chorus again

Bridge

e------------------------
B------------------------
G------------------------
D-0h0-0-0h0--0h0-0-0h0h0-
A-0h0-0-0h0--0h0-0-0h0h0-
D-0h0-0-0h0--0h0-0-0h0h0- x4

Third Chorus is just vocals and then some pick harmonic high on 
the e string.

Then chorus x5
 anh the outro is the chorus played four times

End on
e------
B------
G------
D-0~~~-
A-0~~~-
D-0~~~-

Comments about this tab

Ccheese4 - 2008-05-20

Great tab.
I found one mistake. On the chorus, instead of playing the same thing 4 times, play this.

D-0h0--0h0--0h0--0h0-0-0--8h8--8h8--5h5--5h5-5-5-
A-0h0--0h0--0h0--0h0-0-0--8h8--8h8--5h5--5h5-5-5-
D-0h0--0h0--0h0--0h0-0-0--8h8--8h8--5h5--5h5-5-5-

D-0h0--0h0--0h0--0h0-0-0--8h8--8h8--7h7--7h7-7-7-
A-0h0--0h0--0h0--0h0-0-0--8h8--8h8--7h7--7h7-7-7-
D-0h0--0h0--0h0--0h0-0-0--8h8--8h8--7h7--7h7-7-7-

Then repeat all of that again for the whole chorus.
Other than that though, its a perfect tab.


12thsaint - 2008-05-31

Thanks for the feed back, I'll check it out. Godbless


12thsaint - 2008-06-04

I'm not sure yet, but it sounds like its the 5th (g) fret. seven donsn't match with the cd.


Add a comment/correction

Complimentary Christian Ringtones
Dadamobile and CGR have teamed up to bring your favorite Christian artists right to your phone. Sign up today and get 10 complementary ringtones!
Tab Country
Did you know CGR has a sister site w/ country guitar tabs? Well we do! Its called Tab Country. It has a great archive with a lot of country tabs.
Rockin Tabs
Are you looking for a site that has rock guitar tabs? Then Rockintabs.com is the place for you. It is a budding site with many rock guitar tabs. Submit your tab today.
Tab Gallery
Tab Gallery has a compilation of christian, rock, and country tabs all in one place. Come visit us.