Guitar Tabs
song title    band name

Join Us Today!

Don't strum alone...
be a part of the largest online Christian music community. Browse thousands of guitar tabs and chat w/ musicians like yourself.


It's Free!

This tab has not yet been rated for accuracy.Sorry, but you must be logged in to rate this tab.
Click here to log-in, or you can click here to register.
(Registration is free)

All songs owned by corresponding publishing company. If you make copies of any song on this website, be sure to report your usage to CCLI.
Submitted by: Tyler M.

BAND: 12 STONES
SONG: GAMES YOU PLAY 
TABBED BY TYLER M.

INTRO
C0------XX--X--X-----0------XX--X--X--
G0---875XX57X87X75---0---875XX57X78X--  X2
C0--7---XX--X--X-----0--7---XX--X--X57
F
A
D 
VERSE 
C-3----------5----------
G-3----------5----------
C-3----------5----------
F-5----------7----------
A
D
PRECHORUS
C-7---------10---------
G-7---X8----10---X7----
C-7---------10---------
F-9---------12---------
A
D
CHORUS
C-12---7---10---5--3---0---2---8---10
G-12---7---10---5--3---0---2---8---10
C-12---7---10---5--3---0---2---8---10
F-14---9---12---7--5-----------------
A
D
BRIDGE
C-2----------2---------0----------0----------
G-2----------2---------0----------0----------
C-2------33--2-----33--0-----532--0-----352--
F
A
D
OUTRO
C-0------XX--X--X-----0------XX--X--X--
G-0---875XX57X87X75---0---875XX57X87X75
C-0--7---XX--X--X-----0--7---XX57X87X75
F
A
D
ORDER 
INTRO X2
VERSE 
INTRO
VERSE
INTRO
PRECHORUS
CHORUS
INTRO
VERSE
INTRO
VERSE 
PRECHORUS
CHORUS
BRIDGE
CHORUS 
INTRO 
   
NOBODY TABBED THIS SONG SO I FIGURED ID GIVE IT A SHOT PLEEZ RATE
AND KNOW THAT JESUS SAVES






Comments about this tab

No comments/corrections found. Add your own

Complimentary Christian Ringtones
Dadamobile and CGR have teamed up to bring your favorite Christian artists right to your phone. Sign up today and get 10 complementary ringtones!
Tab Country
Did you know CGR has a sister site w/ country guitar tabs? Well we do! Its called Tab Country. It has a great archive with a lot of country tabs.
Rockin Tabs
Are you looking for a site that has rock guitar tabs? Then Rockintabs.com is the place for you. It is a budding site with many rock guitar tabs. Submit your tab today.
Tab Gallery
Tab Gallery has a compilation of christian, rock, and country tabs all in one place. Come visit us.