Guitar Tabs
song title    band name

Join Us Today!

Don't strum alone...
be a part of the largest online Christian music community. Browse thousands of guitar tabs and chat w/ musicians like yourself.


It's Free!

This tab has been rated a 4.00 out of 5 for accuracy. (1 vote)Sorry, but you must be logged in to rate this tab.
Click here to log-in, or you can click here to register.
(Registration is free)

All songs owned by corresponding publishing company. If you make copies of any song on this website, be sure to report your usage to CCLI.
Submitted by: Snow_Rider04

Song: Bite My Tongue
Artist: Relient K
Album: Five Score And Seven Years Ago
Label: Capitol/Gotee Records

Tuning: Drop Db [Db Ab Db Gb Bb eb]
Palm Mute (.)
Vibrato (~)

Gtr1 (light palm mute, with delay effect)
|----10--10-------9---9-------10--10-------9---9-------12--12-----|
|--10--10---x4--10--10--x4--10--10---x4--10--10--x2--10--10---x2--|
|-----------------------------------------------------------------|
|-----------------------------------------------------------------|  x2
|-----------------------------------------------------------------|
|-----------------------------------------------------------------|
  ...............................................................

Gtr2 electric (comes in on the second time of Gtr1)
|-----------------------------------------------------------|
|-----------------------------------------------------------|
|---------------------7-------------------------------------|
|--5------4-----7-----7-x16----7--------5--------4-----7----|
|--5-x16--5-x8--7-x8--5--------7-x16----5-x16----5-x8--7-x8-|
|--5------4-----7--------------7--------5--------4-----7----|

Rest 4 a bit while bas and vocals have at it

Gtr 1/2   /----------Staccato--------------- 
|--------------------------------------------|
|--------------------------------------------|
|-7-7-7---7-7-7-7--6-6-6-6--9-9-9-9--9-9-9-9-|
|-x-x-x---7-7-7-7--7-7-7-7--7-7-7-7--7-7-7-7-|   Staccato x2
|-5-5-5---5-5-5-5--5-5-5-5--5-5-5-5--5-5-5-5-|
|--------------------------------------------|

Pre-Chorus

Gtr 1/2
|----------------------|      
|----------------------|
|----------------------|						     
|--5-----7-----9-------|  x2  seccond time leave the last 8 strums on the -9- not P.M.
|--5-x8--7-x8--9-x16---|						     -9-
|--5-----7-----9-------|						     -9-
 . . . . . . . . . .

Gtr 1/2
|----------------------|      
|----------------------|
|----------------------|						     
|--5-----7-----9-------| x2
|--5-x8--7-x8--9-x16---|	
|--5-----7-----9-------|

Chorus

Gtr1 (light palm mute, with delay effect)
|----10--10-------9---9-------10--10-------9---9-------12--12-----10~~-10----|
|--10--10---x4--10--10--x4--10--10---x4--10--10--x2--10--10---x2--10~~-10-x4-|
|----------------------------------------------------------------------------|
|----------------------------------------------------------------------------| 
|----------------------------------------------------------------------------|
|----------------------------------------------------------------------------|
  ...............................................................

Gtr2
|---------------------------------------|
|---------------------------------------|
|---7-------------------------------7~~-|
|---7-x16--7------5------4-----7----7~~-|
|---5------7-x16--5-x16--5-x8--7-x8-5~~-|
|----------7------5------4-----7--------|








Verse 2

Gtr1			    Gtr2
|-----------------------|       |-------------------|
|-----------------------|       |-------------------|
|-14-------9-----11-----|       |-7-----------------|
|-12-x16--12-x8--12-x8--| x2    |-7-x16-4-----5-----| x2
|-----------------------|       |-5-----5-x8--5-x8--|
|-----------------------|       |-------4-----5-----|

Pre-Chorus

Gtr 1/2
|---------------------------------|
|---------------------------------|
|---------------------------------|
|--5-----7-----9------5-----7-----| 
|--5-x8--7-x8--9-x16--5-x8--7-x8--|
|--5-----7-----9------5-----7-----|

Chorus   (x2)

Gtr1 (light palm mute, with delay effect)
|----10--10-------9---9-------10--10-------9---9-------12--12-----10~~-|
|--10--10---x4--10--10--x4--10--10---x4--10--10--x2--10--10---x2--10~~-|
|----------------------------------------------------------------------|
|----------------------------------------------------------------------| 
|----------------------------------------------------------------------|
|----------------------------------------------------------------------|
  ...............................................................

Gtr2
|---------------------------------------|
|---------------------------------------|
|---7-------------------------------7~~-|
|---7-x16--7------5------4-----7----7~~-|
|---5------7-x16--5-x16--5-x8--7-x8-5~~-|
|----------7------5------4-----7--------|

Bridge

Gtr 1/2
|------------------------------------------------------------------------|
|------------------------------------------------------------------------|
|---------------7----------------------------7---------------------------|
|-9------5------7-x16--4-------9------5------7-x16--4------5------7------|
|-9-x16--5-x16--5------5-x16---9-x16--5-x16--5------5-x16--5-x16--7-x16--|
|-9------5-------------4-------9------5-------------4------5------7------|
 ...................................................................


Chorus
Gtr 1 rest
Gtr 2  (with Flange effect)
				Gtr 1/2
|---------------|			|--------------------|
|---------------|			|--------------------|
|---------------|		Then	|--------------------|
|---------------|			|-5------4-----7-----|
|-5-x16---------|			|-5-x16--5-x8--7-x8--|
|--------7-x16--|			|-5------4-----7-----|
 ...............

Outro

Gtr1 (light palm mute, with delay effect)
|----10--10-------9---9-------10--10-------9---9-------12--12------|    end with  |-10~~-|
|--10--10---x4--10--10--x4--10--10---x4--10--10--x2--10--10---x2---|              |-10~~-|
|------------------------------------------------------------------|
|------------------------------------------------------------------| x2
|------------------------------------------------------------------|
|------------------------------------------------------------------|
  ...............................................................
Gtr2

|----------------------------------|
|----------------------------------|
|-7--------------------------------|                |-7~~-|
|-7-x16--7------5------4-----7-----| x2   end with  |-7~~-|
|-5------7-x16--5-x16--5-x8--7-x8--|                |-5~~-|
|--------7------5------4-----7-----|


OK this is actually madguitarists tab just higly condensed into a 
readable 3ish page tab
Snow_Rider04

Comments about this tab

Blindsideman - 2008-07-02

Good tab. just need to specifi wat string to hit.


Add a comment/correction

Complimentary Christian Ringtones
Dadamobile and CGR have teamed up to bring your favorite Christian artists right to your phone. Sign up today and get 10 complementary ringtones!
Tab Country
Did you know CGR has a sister site w/ country guitar tabs? Well we do! Its called Tab Country. It has a great archive with a lot of country tabs.
Rockin Tabs
Are you looking for a site that has rock guitar tabs? Then Rockintabs.com is the place for you. It is a budding site with many rock guitar tabs. Submit your tab today.
Tab Gallery
Tab Gallery has a compilation of christian, rock, and country tabs all in one place. Come visit us.