Guitar Tabs
song title    band name

Join Us Today!

Don't strum alone...
be a part of the largest online Christian music community. Browse thousands of guitar tabs and chat w/ musicians like yourself.


It's Free!

This tab has not yet been rated for accuracy.Sorry, but you must be logged in to rate this tab.
Click here to log-in, or you can click here to register.
(Registration is free)

All songs owned by corresponding publishing company. If you make copies of any song on this website, be sure to report your usage to CCLI.
Submitted by: Sk8inGomer

Song:Unbreakable
Artist:Fireflight
Album:Unbreakable
Copyright: 2008 Provident Label Group LLC
Tuning: Dropped C#(I think it is called that...lol) 
From fattest string down:C#,G#,C#,F#,A#,D#
Here is the intro 

D#-7-0-5-0-3s5-0-5-7-0-7-10-0-------------
A#----------------------------------8-7-5------X2
F#----------------------------------------------
C#----------------------------------------------
G#----------------------------------------------
C#----------------------------------------------
Then the rythm guitar goes
D#----------------------------------------------
A#----------------------------------------------
F#----------------------------------------------
C#-2--2--x-x--2-2--x-x--2-x--x-5--5-5--5--7--7-7
G#-2--2--x-x--2-2--x-x--2-x--x-5--5-5--5--7--7-7
C#-2--2--x-x--2-2--x-x--2-x--x-5--5-5--5--7--7-7
Then the verse is just silent pretty much
Chorus
D#-----------------------------------------------------
A#-----------------------------------------------------
F#-9-----12----14------------------------------------
C#-9-x8-12x4-14x4----2--2--x-x-2--2-x-x-2-x----
G#-7-----10---12-------2--2--x-x-2--2-x-x-2-x----x2
C#-----------------------2--2--x-x-2--2-x-x-2-x----

D#---------------------------------------------------------
A#---------------------------------------------------------
F#-9-9-9-9-9-9-7-7-7-7---------------------------------
C#-x-x-x-x-x-x-x-x-x-x-x----0-2-----------------------
G#-7-7-7-7-7-7-5-5-5-5-x-5-0-2-----------------------
C#-------------------------x----0-2-----------------------
Dawn sings a bit and then
D#--------------------------------------------------------------
A#--------------------------------------------------------------
F#-9-xxxxxx-9-x-x-9-x-9-x-7-x-x-x-x-x-x-7-x-x-7-x-7-x---
C#-9-xxxxxx-9-x-x-9-x-9-x-7-x-x-x-x-x-x-7-x-x-7-x-7-x---
G#-7-xxxxxx-7-x-x-7-x-7-x-5-x-x-x-x-x-x-5-x-x-5-x-5-x---
C#--------------------------------------------------------------

D#-----------------------------------------------------
A#-----------------------------------------------------
F#-------------------------------------
C#----2--2--x-x-2--2-x-x-2-x-x-2--
G#----2--2--x-x-2--2-x-x-2-x-x-2--
C#----2--2--x-x-2--2-x-x-2-x-x-2--
Chorus again then Dawn sings some more, then the
coolest part of the song!(The reason you tune it down from drop D)
D#-----------------------------------------------------------
A#-----------------------------------------------------------
F#-----------------------------------------------------------
C#--2------------2-------------2-------------------5--0----
G#--2--3-3-2-0-2--3--3-2-0--2--3--3-2-0-2-0--5--0----x2
C#--2------------2-------------2-------------------5--0----
Then you repeat the chorus and for the outro,
D#------------------------------------
A#------------------------------------
F#-------------------------------------
C#----2--2--x-x-2--2----x-x---x----
G#----2--2--x-x-2--2----x-x---x----
C#----2--2--x-x-2--2----x-x---x----

D#-------------------------------------
A#-------------------------------------
F#--------------------------------------
C#----2--2--x-x-2--2----x-x---x--2--
G#----2--2--x-x-2--2----x-x---x--2--
C#----2--2--x-x-2--2----x-x---x--2--
There you go! Please comment and rate!:) Enjoy!

Comments about this tab

Hawk Nelson Fan - 2008-08-30

100% correct!!


Add a comment/correction

Complimentary Christian Ringtones
Dadamobile and CGR have teamed up to bring your favorite Christian artists right to your phone. Sign up today and get 10 complementary ringtones!
Tab Country
Did you know CGR has a sister site w/ country guitar tabs? Well we do! Its called Tab Country. It has a great archive with a lot of country tabs.
Rockin Tabs
Are you looking for a site that has rock guitar tabs? Then Rockintabs.com is the place for you. It is a budding site with many rock guitar tabs. Submit your tab today.
Tab Gallery
Tab Gallery has a compilation of christian, rock, and country tabs all in one place. Come visit us.