Guitar Tabs
song title    band name

Join Us Today!

Don't strum alone...
be a part of the largest online Christian music community. Browse thousands of guitar tabs and chat w/ musicians like yourself.


It's Free!

Knapp, Jennifer - Peace

This tab has been rated a 3.33 out of 5 for accuracy. (3 votes)Sorry, but you must be logged in to rate this tab.
Click here to log-in, or you can click here to register.
(Registration is free)

All songs owned by corresponding publishing company. If you make copies of any song on this website, be sure to report your usage to CCLI.
Title: Peace
By: Jennifer Knapp Copyright 1999 (http://www.jenniferknapp.com)
Transcribed by: Megan Gandy (GandyM@lrc.edu)

This is as best as I can tab this song because it is very complex.  It is in 
double drop D tuning, which means that you tune the high & low "E" strings of 
your guitar down a whole step to the note "D".  In this song, Jen constantly 
plucks the high "d" string, and it somewhat keeps the beat.  It would be best 
for you to try to play this along with the CD to get a feeling of what I mean.  
This is the order of the song:

First Intro
Verse 1 Riff
Chorus Riff
Intro Riff
Pick-up Riff 1 
Verse 1 Riff again 
Chorus Riff again
Bridge Riff
Chorus Riff
Chorus 2 Riff
Intro Riff
Pick-up Riff 2
Ending Riff

I know it seems complicated, but it's the only way I could figure to tab it 
out without it being like 10 pages long.  It really makes sense if you play 
along w/ the CD.  Also, I'm not quite sure about the very last chord, but 
it's as close as I could come.  One more thing, with some computers, the tab 
lines aren't going to fit on your page correctly, so I'd suggest that you 
change the page layout to "Landscape" instead of the default "Portait" so 
they'll fit on the page.


I'll try to explain a few of my symbols:
p=pull off
h=hammer on
t=trill
s\=slide down (i.e. from high to low)

So here goes nothing:

Capo 4, frets relative to the Capo.


First Intro:
d:----------------------------0--------------------------------------------
B:-------------------------------------------2t3t2--0-h2-------------------
G:--------7s\2----2p0---------0----------------------------2---2p0---------
D:--0------------------4h5-------------------------------------------------
A:---0------------------------------2p0------------------------------------
D:----0--------------------5------------0----------------------------------


d:-------------------------2---------0-2-4-4p-2p0--------------------------
B:-------------------------0----------------------2t3t2--------------------
G:-----------------------2------------------------------2----2p0-----------
D:--4-4t5t4--0--2====--2-----------------------------------------4---------
A:-------------------0--------2p0------------------------------------------
D:-----------------0--------------0----------------------------------------


d:------0--------2===------------------0---------2---------4---------------
B:-------------------------------------------------------------------------
G:----2---2--------------------------2---2---------0---------0-------------
D:--4-------4s5------------------2s4-------4--s5-----5--s7-----7--s9-------
A:-------------------------0-----------------------------------------------
D:---------------------------0-------------------0=========0=========------


d:--5======---5s\0-------0---------------0-----0---------------------------
B:-------------------------------------------------------------------------
G:---------------------2---0-----------2---0-------------------------------
D:-------------------0-----------------------0----4--5---------------------
A:-------------------------------0h2-----------------5-----0h2-------------
D:--0======--------------------------0--------------------------0----------


d:----0-----0---------------------0-----0----------------------------------
B:-------------------------------------------------------------------------
G:--2---0-----------------------2---0--------------------------------------
D:--------0---4--5--4s2p0-------------0----4--5----------------------------
A:---------------5----------0-----------------5----------------------------
D:----------------------------0--------------------------------------------


Verse 1 Riff:
d:------0-------0-----0---------0-------0-------0-------2h4p2p0--------0---
B:-------------------------------------------------------------------------
G:----2---0-------0-----0-----0---0---2---0-------0---2----------0---2-----
D:--0---------0-----4-----0h2-------0---------0-----0--------------0-------
A:-------------------------------------------------------------------------
D:-------------------------------------------------------------------------


d:--------0-----0---------0-------0-------0------0-------0-----0-----0-----
B:-------------------------------------------------------------------------
G:--0-------0-----0-----0---0---2---0-------0----------0---0-----2---------
D:------0-----4-----0h2-------0---------0-----4----0h2-------------2---2---
A:-----------------------------------------------------------0-------------
D:----------------------------0-------------------------------------------
	    (this bottom note ^ played only on repeat of verse 1)	

d:--2p0---0-----0------------0------0-------0----------0-------------------
B:-------------------------------------------------------------------------
G:----------2-----2--------2---0------0---2---0----------------------------
D:------------2-----2p0--0--------0-----0----------0-----------------------
A:------0--------------------------------------------0---------------------
D:-----------------------0-------------------------------------------------
			(^ See line above)

Chorus Riff:
d:----0-----0---2p0---0-----0----------0-----0-----------0------------0----
B:-------------------------------------------------------------------------
G:------0---------------0-----0----------0-----0-----------0---------------
D:--------2---2-----------2-----2p0--------0-----------0---------0---------
A:--0---------------0----------------2-----------2p0----------------0------
D:---------------------------------------------------0---------------------


d:----0-----0-----0---0-----0-----0-------0-0-0----------------------------
B:-------------------------------------------------------------------------
G:------0-----0--------0-----0------------2-2-2p0--------------------------
D:--------0--------------0-------------------------------------------------
A:-------------------------------------------------------------------------
D:--5-----------5---4-----------4---2-----2-2-2----------------------------


Intro Riff:
d:----------0-------0-----0-----0----0-------0-----0-----0---------0-------
B:-------------------------------------------------------------------------
G:--------2---0-----------------0------0---2---0---------------0---0-------
D:----------------0---4h5---0h2----------0-------0---4h5---0h2-------------
A:--0h2--------------------------------------------------------------------
D:------0------------------------------------------------------------------

Pick-up Riff 1:
A:--0-------------
D:----0-----------


Verse 1 Riff


Chorus Riff


Bridge Riff:
d:---------------0------------0---------------------0-----0----------0-------
B:---------------------------------------------------------------------------
G:-----7s\2-------------------0------7s/2-----------0-----0--------2---0-----
D:-----------4h5----5p4-------------------4-2---------------0---------------
A:-0--------------------0---0-----------------0-0-----0-------0--------------
D:---0--------------------0-------0-----------------------------0------------


d:----------0-----0--------------0-----------------------------------------
B:-------------------------------------------------------------------------
G:--------2---0------------------------------------------------------------
D:--------------0---4--5--4--5---------------------------------------------
A:--0h2-------------5--5--5--5-5-------------------------------------------
D:------0------------------------------------------------------------------


Chorus Riff


Chorus 2 Riff:
d:----0-----0-----0---0----------0-----0-----0---0---------0-----0-----0---
B:-------------------------------------------------------------------------
G:------0-----0---------0----------0-----0---------0---------0-----0-------
D:--------0---------------0----------0---------------0---------0-----------
A:-------------------------------------------------------------------------
D:--5-----------5---4----------5-----------5---4---------5-----------5-----


d:----0-----0-----0------0-0-0----------------0-------0-----0---------0----
B:-----------------------2-2-2p0-------------------------------------------
G:------0-----0----------2-2-2p0------------2---0-----------------0-----0--
D:--------0-----------------------------------------0---4h5---0h2----------
A:------------------------------------0h2----------------------------------
D:--4-----------4---2----2-2-2------------0--------------------------------

Intro Riff

Pick-up Riff 2:
G:---0---------


Ending Riff:


d:------0-------0-----0---------0-------0-------0-------2h4p2--------------
B:-------------------------------------------------------------------------
G:----2---0-------0-----0-----0---0---2---0-------0---2-------2p0----------
D:--0---------0-----4-----0h2-------0---------0-----0--------------2s4=----
A:-----------------------------------------------------------------0===----
D:-----------------------------------------------------------------0===----

Comments about this tab

No comments/corrections found. Add your own

Complimentary Christian Ringtones
Dadamobile and CGR have teamed up to bring your favorite Christian artists right to your phone. Sign up today and get 10 complementary ringtones!
Tab Country
Did you know CGR has a sister site w/ country guitar tabs? Well we do! Its called Tab Country. It has a great archive with a lot of country tabs.
Rockin Tabs
Are you looking for a site that has rock guitar tabs? Then Rockintabs.com is the place for you. It is a budding site with many rock guitar tabs. Submit your tab today.
Tab Gallery
Tab Gallery has a compilation of christian, rock, and country tabs all in one place. Come visit us.