Guitar Tabs
song title    band name

Join Us Today!

Don't strum alone...
be a part of the largest online Christian music community. Browse thousands of guitar tabs and chat w/ musicians like yourself.


It's Free!

Knapp, Jennifer - Peace

This tab has been rated a 1.00 out of 5 for accuracy. (3 votes)Sorry, but you must be logged in to rate this tab.
Click here to log-in, or you can click here to register.
(Registration is free)

All songs owned by corresponding publishing company. If you make copies of any song on this website, be sure to report your usage to CCLI.
                                      PEACE
                          As recorded by Jennifer Knapp
                    (From the LP recording LAY IT DOWN)

Words and Music by Jennifer Knapp
Transcribed by Mimi Naja

This is in standard tuning (eBGDAE) with a capo on the 2nd fret (relative to capo,
0=2). I found that this is the easiest way to play it.

|-0-----------------0---------------------------------------------2--|
|-0-5\0--0-------------------h4p5-4---4-------------------------0-0--|
|-1--------2-1/-2-------------------6---4--4-2-1h1p2-1--------2---2--|
|-2----------------------------------------------------2-4--4-----4--|
|-2---------------4---p4-2-------------------------------------------|
|-0------------------------0--------------------------------0--------|


|-------0-2-4-4b6r4-5-4-2-0---------------------0--------2--------0--------2--|
|---------------------------4-5-4-0-0---------0---0-------------0---0---------|
|-------------------------------------2-1---1-------1\-2-2---/1-------1\-2----|
|-----------------------------------------2-----------------------------------|
|-4-2------------------------------------------------------2------------------|
|-----0--------------------------------------------------0----0------------0--|


|--------4-------5-5\----0------------0-----0---0--|-----------0-----|-0---0--|
|-----------------------------------------------0--|-----------------|-----0--|
|-2-2\-4-4-4-4-6-6---------2------------2-----1-2--|-------------2---|---1-2--|
|----------------------2------------2-----2-----2--|---------2-----2-|-----2--|
|----------------------------2\-4---------------2--|--2\-4-----------|-----2--|
|--------0-------0---0------------0-------------0--|-------0---------|-----0--|


|-------------0-----0---0--|
|-----------------------0--|
|-1-------------2-----1-2--|
|---4-2-----2-----2-----2--|
|-------2---------------2--|
|---------0-------------0--|


Ok, you guys. This is not the complete song because that would take
FOREVER! But this is the intro.  If you base the rest of the song on
what I have tabbed, you can figure out pretty much all of it.  If
anyone has any corrections, please send them to me at MimiNaja@hotmail.com.
Thanks!

~~**--Psalm 27:1--**~~
--------------------------------------------------------------------
Legend
------

 h  = hammer-on		 
 p  = pull-off		
 b  = bend		
 r  = bend release	
 /  = slide up/down	

-----------------------------------------------------------

***********************************************************
* This file was generated with Power Tab Editor - Get it at
http://home.tct.net/~blarsen *
***********************************************************

Comments about this tab

No comments/corrections found. Add your own

Complimentary Christian Ringtones
Dadamobile and CGR have teamed up to bring your favorite Christian artists right to your phone. Sign up today and get 10 complementary ringtones!
Tab Country
Did you know CGR has a sister site w/ country guitar tabs? Well we do! Its called Tab Country. It has a great archive with a lot of country tabs.
Rockin Tabs
Are you looking for a site that has rock guitar tabs? Then Rockintabs.com is the place for you. It is a budding site with many rock guitar tabs. Submit your tab today.
Tab Gallery
Tab Gallery has a compilation of christian, rock, and country tabs all in one place. Come visit us.