Guitar Tabs
song title    band name

Join Us Today!

Don't strum alone...
be a part of the largest online Christian music community. Browse thousands of guitar tabs and chat w/ musicians like yourself.


It's Free!

This tab has been rated a 5.00 out of 5 for accuracy. (1 vote)Sorry, but you must be logged in to rate this tab.
Click here to log-in, or you can click here to register.
(Registration is free)

All songs owned by corresponding publishing company. If you make copies of any song on this website, be sure to report your usage to CCLI.
Submitted by: Squillis

This is the piano part of the song rewritten for guitar.
It is mostly the same but some changes were made to allow picking.

                                   NEVER ALONE
                           As recorded by Barlow Girl
                   (From the 2005 Album ANOTHER JOURNAL ENTRY)


  Q.=66
  Em            Cmaj7         G             D/F#          Em
 6/8
  Gtr I
|-----0-2-3-2-|-----0-2-3-2-|-3-----------|-------------|-----0-2-3-2-|
|---0---0-----|---0---0-----|-3-----0-----|-3-----3-----|---0---0-----|
|-------------|-------------|-----0-2-0---|-2-----2-0---|-------------|
|-2-----------|-------------|---0-------0-|---0-4-----4-|-2-----------|
|-------------|-3-----------|-------------|-------------|-------------|
|-------------|-------------|-3-----------|-2-----------|-------------|


  Cmaj7         G            D          Em            Cmaj7
|-----0-2-3-2-|-3----------|-^2------||-----0-2-3-2-|-----0-2-3-2--|
|---0---0-----|-3----------|-^3------||---0---0---0-|---0---0---0--|
|-------------|-----0-2--2-|-^2------||-------------|--------------|
|-------------|---0--------|-^0------||-2-----------|--------------|
|-3-----------|------------|---------||-------------|-3------------|
|-------------|-3----------|---------||-------------|--------------|


  G             D/F#          Em            Cmaj7         G
|-3-----------|-------------|-----0-2-3-2-|-----0-2-3-2-|-3------------|
|-3-----0-----|-3-----3-----|---0---0---0-|---0---0---0-|-3-----0------|
|-----0-2-0---|-2---0-2-0---|-------------|-------------|-----0-2-0----|
|---0-------0-|---0-------4-|-2-----------|-------------|---0-------0--|
|-------------|-------------|-------------|-3-----------|--------------|
|-3-----------|-2-----------|-------------|-------------|-3------------|


  D/F#          Em            C(no 3rd)     G             D/F#
|-------------|-----0-2-3-2-|-3-----3-----|-3-----------|--------------|
|-3-----3-----|---0---0---0-|-3-1-3-3-1-3-|-3-----0-----|-3-----3------|
|-2---0-2-0---|-------------|-------------|-----0-2-0---|-2---0-2-0----|
|---0-------4-|-------------|-------------|---0-------0-|---0-------4--|
|-------------|-------------|-3-----------|-------------|--------------|
|-2-----------|-0-----------|-------------|-3-----------|-2------------|


  Em          C(no 3rd)       G             D/F#          C     Cadd4
|-0-----2-3-2-|-3-----3-----|-3-----------|-------------|-3-----2------|
|-0-----0---0-|-3-1-3-3-1-3-|-3-----0-----|-3-----3-----|-5---3-3---3--|
|---0---------|-------------|-----0-7-0---|-2---0-2-0-2-|-7-5---5-5----|
|-----2-------|-------------|---0---7---0-|---0---------|--------------|
|-------------|-3-----------|-------------|-------------|-3-----3------|
|-0-----------|-------------|-3-----------|-2-----------|--------------|


  C     C/D     Em                  Em/D    C
|-3-----3-----|-0-----0-----|-0-----0-----|-2-----------|-2------------|
|-5---3-5-----|-0---0-0---0-|-0---0-0---0-|-5-----5-----|-5-----5------|
|-7-5---5-0-5-|-0-0---0-0---|-0-0---0-0---|---0-7-7-0-7-|---0-7-7-0-7--|
|-------------|-------------|-------0-----|-------------|--------------|
|-3-----5-----|-------------|-------------|-3-----------|-3------------|
|-------------|-0-----------|-0-----------|-------------|--------------|


  G     Gadd9   Baug  B7                Em            C/E   Em/D
|-3-----3-----|-3-----2-----|--------||-------------|--------------|
|-3-----3-----|-4-0-4-4---0-|-4------||-0-----0-----|-1-----0------|
|-4-0---4-0---|---------2---|--------||-0---0-0---0-|-----0-0---0--|
|-7---7-7---7-|-------------|--------||---2-----2---|---2---0-2----|
|-------------|-2-----------|-2------||-------------|--------------|
|-3-----------|-------------|--------||-0-----------|-0------------|


  C                   C/B     Am                          G
|-------------|-------------|-------------|-------------|--------------|
|-------------|-------------|-------------|-------------|--------------|
|-0-----0-----|-0-----0-----|-------------|-------------|--------------|
|-2-----2-----|-2-----2-----|-2-----------|-2-----------|-0-----0------|
|-5-3-5-5-3-5-|-5-3-5-5-3-5-|-3-----3-----|-3-----3-----|-2-----2------|
|-------------|-------------|---5-7-7-5-7-|---5-7-7-5-7-|-5-3-5-5-3-5--|


  B             Em            C/E   Em/D    C                   C/B
|-------------|-------------|-------------|-------------|--------------|
|-------------|-0-----0-----|-1-----0-----|-------------|--------------|
|-------------|-0---0-0---0-|-----0-0---0-|-0-----0-----|-0-----0------|
|-4---------4-|---2-----2---|---2-----2---|-2-----2-----|-2-----2------|
|-6-2-6-4-6---|-------------|-------------|-5-3-5-5-3-5-|-5-3-5-5-3-5--|
|-------------|-0-----------|-0-----------|-------------|--------------|


  Am                          G             B             Em
|-------------|-------------|-------------|-------------|--------------|
|-------------|-------------|-------------|-------------|--------------|
|-------------|-------------|-------------|-------------|---------0----|
|-2-----------|-2-----------|-0-----0-----|-4---------4-|-2-----4---4--|
|-3-----3-----|-3-----3-----|-2-----2-----|-6-2-6-4-6---|-2---2-2------|
|---5-7-7-5-7-|---5-7-7-5-7-|-5-3-5-5-3-5-|-------------|-3-3---3------|


  C             G             D/F#          Em            C
|-------------|-------------|-------------|-------------|--------------|
|-------------|-------------|-------------|-------------|--------------|
|---------0---|---------0---|-2-----4-----|---------0---|---------0----|
|-2-----4---4-|-2-----4---4-|-4---4-4---4-|-2-----4---4-|-2-----4---4--|
|-3---3-3-----|-2---2-5-----|-5-5---5-5---|-2---2-2-----|-3---3-3------|
|-3-3---3-----|-3-3---7-----|-------------|-3-3---3-----|-3-3---3------|


  G             D/F#           Em            C            G
|-------------|-------------||-------------|------------|-------------|
|-------------|-------------||-------------|------------|-------------|
|-0-------0---|-2-----4-----||---------0---|-------0----|-------0-----|
|-0---0-4---4-|-4---4-4---4-||-------4---4-|-------2----|-------0--0--|
|-2-2---5-----|-5-5---5-5---||-------2-----|-3-3-3-3----|-------2-----|
|-------7-----|-------------||-0-0-0-3-----|----------3-|-3-3-3-------|


  D/F#         Em           C            G            D/F#
|------------|------------|------------|------------|--------------|
|------------|------------|------------|------------|--------------|
|------------|-------0----|-------0----|-------0----|-------2-2-2--|
|-------4--0-|-------2----|-------2----|-------0--0-|-------4-4-4--|
|-------5----|-------2--2-|-3-3-3-2--2-|-------2----|-------5-5-5--|
|-2-2-2-5----|-0-0-0------|------------|-3-3-3------|-2-2-2-2------|


  Em           C            G            D/F#         Em
|------------|------------|------------|------------|-------------|
|------------|------------|------------|------------|-------------|
|-------0----|-------0----|-------0----|------------|-------0-----|
|-------2----|-------2----|-------0--0-|-------4--0-|-------2-----|
|-------2--2-|-3-3-3-2--2-|-------2----|-------5----|-------2--2--|
|-0-0-0------|------------|-3-3-3------|-2-2-2-5----|-0-0-0-------|


  C            G            D/F#          C                   C/D
                            <
|------------|------------|-------2-----|-3-3-3-3-3-3-|-3-3-3-3-3-3--|
|------------|------------|---------3---|-5-5-5-5-5-5-|-5-5-5-5-5-5--|
|-------0----|-------0----|-------------|-5-5-5-5-5-5-|-5-5-5-5-5-5--|
|-------2----|-------0--0-|-------4---4-|-----5-----5-|--------------|
|-3-3-3-3--2-|-------2----|-------5-----|-3-----------|-3---3-5---5--|
|------------|-3-3-3------|-2-2-2-5-----|-------------|--------------|


  Em                          C                           G
|-3-3-3-3-3-3-|-3-3-3-3-3-3-|-3-3-3-3-3-3-|-3-3-3-3-3-3-|-3-3-3-3-3-3--|
|-5-5-5-5-5-5-|-5-5-5-5-5-5-|-5-5-5-5-5-5-|-5-5-5-5-5-5-|-3-3-3-3-3-3--|
|-4-4-4-4-4-4-|-4-4-4-4-4-4-|-5-5-5-5-5-5-|-5-5-5-5-5-5-|-4-4-4-4-4-4--|
|-------2-----|-------2-----|-----5-----5-|-----5-----5-|-----0-5---4--|
|-----2-----2-|-----2-----2-|-3-----------|-3-----------|---------0-1--|
|-0-----------|-0-----------|-------------|-------------|-3------------|


              $
  Baug  B        Em            C/E   Em      C                   C/B
|-3-3-3-2-2-2-||-3---0-3-----|-3-----0-----|-3---0-3---0-|-3---0-3---0--|
|-4-4-4-4-4-4-||-5-----5---5-|-5---1-0---0-|-5-1---5-1---|-5-1---5-1----|
|-4-4-4-4-4-4-||-4-4-4-4-4-4-|-5-0-4-0-0---|-5---0-5---0-|-5-----5------|
|-----2-----2-||-2-----------|-2-----------|-------------|--------------|
|-2-----------||-------------|-------------|-3-----------|-3---3-2---2--|
|-------------||-------------|-------------|-------------|--------------|


  Am                          G             B             Em
|-0-----0-----|-0-----0-----|-3-----3-----|-2-----2-----|-3---0-3---0--|
|-1---0-1---0-|-1---0-1---0-|-3---3-3---3-|-4---4-4-0-4-|-5-0-0-5-0-0--|
|-2-2---2-2---|-2-2---2-2---|-4-4---4-4---|-4-4---4-0---|-4-----4------|
|-----2-----2-|-----2-----2-|-----0-------|-----4-----4-|-2------------|
|-0-----------|-0-----------|---------0-1-|-2-----------|--------------|
|-------------|-------------|-3-----------|-------------|--------------|


                                                               To Coda
  C/E   Em      C                   C/B     Am
|-3-----0-----|-3---0-3---0-|-3---0-3---0-|-0-----0-----|-0-----0------|
|-5---1-0---0-|-5-1---5-1---|-5-1---5-1---|-1---0-1---0-|-1---0-1---0--|
|-5-0-4-0-0---|-5---0-5---0-|-5-----5-----|-2-2---2-2---|-2-2---2-2----|
|-2-----------|-------------|-------------|-----2-----2-|-----2-----2--|
|-------------|-3-----------|-3---3-2---2-|-0-----------|-0------------|
|-------------|-------------|-------------|-------------|--------------|


  G             B              Em            C             G
|-3-----3-----|-2-----2-----||-0-----2-3-2-|-0-----2-3-2-|-3-----2-3-2--|
|-3---3-3---3-|-4---4-4---4-||-0---0-0-----|-1---1-1-----|-3---3-3------|
|-4-4---4-4---|-4-4---4-4---||-0-0---0-----|-0-0-0-0-----|-4-4---4------|
|-----0-------|-----4-----4-||-2-----------|-------------|-----0--------|
|---------0-1-|-2-----------||-------------|-3-----------|--------------|
|-3-----------|-------------||-------------|-------------|-3------------|


  D/F#          Em            C             G             D/F#
|-7-----8-----|-0-----2-3-2-|-0-----2-3-2-|-3-----2-3-2-|-7-----8------||
|-8---8-8---8-|-0---0-0-----|-1---1-1-----|-3---3-3-----|-8---8-8---8--||
|-9-9-7-9-9---|-0-0---0-----|-0-0-0-0-----|-4-4---4-----|-9-9-7-9-9----||
|-------------|-2-----------|-------------|-----0-------|--------------||
|-9-----------|-------------|-3-----------|-------------|-9------------||
|-------------|-------------|-------------|-3-----------|--------------||


  C                           Em                          C
|-3-----3-----|-3-----3-----|-3-----3-----|-3-----3-----|-3-----3------|
|-5-----5-----|-5-----5-----|-5-----5-----|-5-----5-----|-5-----5------|
|-7-0-5-7-0-5-|-7-0-5-7-0-5-|-4-0-4-4-0-4-|-4-0-4-4-0-4-|-7-0-5-7-0-5--|
|-------------|-------------|-------------|-------0-----|-------0------|
|-3-----------|-3-----------|-------------|-------------|-3------------|
|-------------|-------------|-0-----------|-0-----------|--------------|


                                       D.S. al Coda   &
                                                   &
                G             Baug  B7          N.C.  G
|-3-----3-----|-3-----3-----|-------------|--------||-3-----3------|
|-5-----5-----|-5-----5-----|-------------|-0------||-3---3-3---3--|
|-7-0-5-7-0-5-|-4-0-4-4-0-4-|-0-----0-----|--------||-4-4---4-4----|
|-------------|-------------|-----1-----1-|--------||-----0-5------|
|-3-----------|-------------|-2-2-----2---|-2------||---------0-1--|
|-------------|-0-----------|-------------|--------||-3------------|


  B              Em            C             G             D/F#
|-2-----2-----||-0-----2-3-2-|-0-----2-3-2-|-3-----2-3-2-|-5-----7------|
|-4---4-4---4-||-0---0-0-----|-1---1-1-----|-3---3-3-----|-7---7-7---7--|
|-4-4---4-4---||-0-0---0-----|-0-0-0-0-----|-4-4---4-----|-7-7-7-7-7----|
|-----4-----4-||-------------|-------------|-----0-------|-4------------|
|-2-----------||-----2-------|-3-----------|-------------|--------------|
|-------------||-0-----------|-------------|-3-----------|--------------|


  Em            C             G             D/F#          Em
|-0-----2-3-2-|-0-----2-3-2-|-3-----2-3-2-|-5-----7-----|-^0----|
|-0---0-0-----|-1---1-1-----|-3---3-3-----|-7---7-7---7-|-^0----|
|-0-0---0-----|-0-0-0-0-----|-4-4---4-----|-7-7-7-7-7---|-^0----|
|-------------|-------------|-----0-------|-4-----------|-^2----|
|-----2-------|-3-----------|-------------|-------------|-^2----|
|-0-----------|-------------|-3-----------|-------------|-^0----|



***************************************************************************************
* Generated using Power Tab Editor by Brad Larsen - http://powertab.guitarnetwork.org *
***************************************************************************************

Comments about this tab

Squillis - 2008-03-14

Hey, I originally put this in powertabs, but wasn't able to submit the *.ptb file. I was curious if anyone had gotten very far with this version. I've so far learned most of the first page, though I can't play quite up to tempo yet. If anyone has some feedback, questions, comments, or recommendations I'd apriciate it, thanx!


StandFree - 2008-05-30

Dude, this rocks. The closest I've been able to find, Even using it for piano


Add a comment/correction

Complimentary Christian Ringtones
Dadamobile and CGR have teamed up to bring your favorite Christian artists right to your phone. Sign up today and get 10 complementary ringtones!
Tab Country
Did you know CGR has a sister site w/ country guitar tabs? Well we do! Its called Tab Country. It has a great archive with a lot of country tabs.
Rockin Tabs
Are you looking for a site that has rock guitar tabs? Then Rockintabs.com is the place for you. It is a budding site with many rock guitar tabs. Submit your tab today.
Tab Gallery
Tab Gallery has a compilation of christian, rock, and country tabs all in one place. Come visit us.