Guitar Tabs
song title    band name

Join Us Today!

Don't strum alone...
be a part of the largest online Christian music community. Browse thousands of guitar tabs and chat w/ musicians like yourself.


It's Free!

This tab has been rated a 5.00 out of 5 for accuracy. (1 vote)Sorry, but you must be logged in to rate this tab.
Click here to log-in, or you can click here to register.
(Registration is free)

All songs owned by corresponding publishing company. If you make copies of any song on this website, be sure to report your usage to CCLI.
Submitted by: Sk8inGomer

Song : For The Love Of The Game
Artist : Pillar
Album : For The Love Of The Game
Tuning : Drop C, from fattest string down, C,G,C,F,A,D
I will let you figure out the rhythm.. that is fairly easy...:) 
Legend: s = slide, b r = bend then release, (Bend the note up, 
then let it back to normal.
Intro
D-----------------------------------
A-----------------------------------
F-----------------------------------
C-x---------------------------------    
G-x------5--5s3s0------3------------
C-x-0--0----------3--3---3----------

D-----------------------------------
A-----------------------------------
F-----------------------------------
C-----------------------------------      X2
G------5--5s3s0-------3-------------
C-0--0----------3--3----3-----------

D-----------------------------------
A-----------------------------------
F-----------------------------------
C-----------------------------------
G-------5--5s3s0--------------------
C--0--0----------3---0-3-5-5br-5-3-0
Verse

D------------------------------------------------------
A------------------------------------------------------
F------------------------------------------------------  X2
C--x-0---0---x-0---0---x-0--0--x-0---------------------
G--x-0---0---x-0---0---x-0--0--x-0---------------------
C--x-0---0---x-0---0---x-0--0--x-0--0-3-5-5br-3-0------

D------------------------------------------------------------------
A------------------------------------------------------------------
F------------------------------------------------------------------
C--x--0--0--x--x--x--0--0--x--x--x--0--0-x--x--x--0----------------
G--x--0--0--x--x--x--0--0--x--x--x--0--0-x--x--x--0----------------
C--x--0--0--x--x--x--0--0--x--x--x--0--0-x--x--x--0--0-3-5-5br5-3-0
All of the Verse X2 and then
Before Chorus
D--------------------------------------------------
A--------------------------------------------------
F--------------------------------------------------
C--8-8-x-x-x-8-10-10-x-x-x-10-0-------------------
G--8-8-x-x-x-8-10-10-x-x-x-10-0-88778810-10-887755
C--8-8-x-x-x-8-10-10-x-x-x-10-0-------------------
Do not pay attention to  timing. listen to the song.. it is fairly
easy.
D--------------------------------------------------
A--------------------------------------------------
F--------------------------------------------------
C--8-8-x-x-x-8-10-10-x-x-x-10-0---------------10-10---
G--8-8-x-x-x-8-10-10-x-x-x-10-0-88778810-10-88------8
C--8-8-x-x-x-8-10-10-x-x-x-10-0---------------------

D--------------------------------------------------
A--------------------------------------------------
F--------------------------------------------------
C-0--3--8--10---------------------------------------
G-0--3--8--10---------------------------------------
C-0--3--8--10-
Chorus

D--------------------------------------------------------
A--------------------------------------------------------
F--------------------------------------------------------
C--0--3--8-8--------------8-8---------------5--3s5s3-----
G--0--3--8-8-10-10-10-10--8-8--12-12-12-12--5--3s5s3-----
C--0--3--8-8--------------8-8---------------5--3s5s3-----

D--------------------------------------------------------
A--------------------------------------------------------
F--------------------------------------------------------
C--0--3--7-7--------------7-7---------------8--10--------
G--0--3--7-7-10-10-10-10--7-7--10-10-10-10--8--10--------
C--0--3--7-7--------------7-7---------------8--10--------
Prelude
D-----------------------------------
A-----------------------------------
F-----------------------------------
C-----------------------------------      X3
G------5--5s3s0-------3-------------
C-0--0----------3--3----3-----------

D-----------------------------------
A-----------------------------------
F-----------------------------------
C-----------------------------------      
G------5--5s3s0---------------------
C-0--0------------5b----------------
Verse 2 same as verse one
p r e chorus 
Chorus
Bridge
D-----------------------------------
A-----------------------------------
F-----------------------------------
C-----------------------------------      X3
G--5s3----------5s3-----------------
C------0-3-0--------0-3-0-----------

D-----------------------------------
A-----------------------------------
F-----------------------------------
C-----5------7----------------------  
G---0--0-0-0---0-0-0----------------
C-----------------------------------

D-----------------------------------
A-----------------------------------
F-----------------------------------
C-----------------------------------      X2 or 3
G--5s3----------5s3-----------------
C------0-3-0--------0-3-0-----------

D-----------------------------------
A-----------------------------------
F-----------------------------------
C-----5------7----------------------  
G---0--0-0-0---0-0-0----------------
C-----------------------------------
D----------------------------
A----------------------------
F-7--10------------------------
C-7--10-8--10-----------------      
G-5--8--8--10-----------------
C-------8--10-----------------
Chorus again
Ending
D-----------------------------------
A-----------------------------------
F-----------------------------------
C-----------------------------------      X5
G--5s3----------5s3-----------------
C------0-3-0--------0-3-0-----------

well, that is it! It is late... so I hope I did not do something 
stupid... when I played it it sounded close enough to perfect.. 
and you have to figure out the timing... sorry.. but the way it  
looks is not what you are supposed to play it.. well, I hope this 
helps! Please rate and comment.. corrections?:D

Comments about this tab

Sk8inGomer - 2008-03-27

Sorry. I did do something stupid. On
D--------------------------------------------------------
A--------------------------------------------------------
F--------------------------------------------------------
C--0--3--8-8--------------8-8---------------5--3s5s3-----
G--0--3--8-8-10-10-10-10--8-8--12-12-12-12--5--3s5s3-----
C--0--3--8-8--------------8-8---------------5--3s5s3-----
It is supposed to be
D--------------------------------------------------------
A--------------------------------------------------------
F--------------------------------------------------------
C--0--3--8-8--------------8-8---------------5--3s5s3-----
G--0--3--8-8-10-10-10-10--8-8--10-10-10-10--5--3s5s3-----
C--0--3--8-8--------------8-8---------------5--3s5s3-----
I think. And, in the bridge, when it goes
D--------------------------------------------------------
A--------------------------------------------------------
F--------------------------------------------------------
C-----5-------7------------------------------------------
G---0---0-0-0---0----------------------------------------
C--------------------------------------------------------
The second time is
D--------------------------------------------------------
A--------------------------------------------------------
F--------------------------------------------------------
C-----5-------3------------------------------------------
G---0---0-0-0---0----------------------------------------
C--------------------------------------------------------
Hope that helps!


Sk8inGomer - 2008-03-27

Uhm, that got messed up, hope you can read it.


Add a comment/correction

Complimentary Christian Ringtones
Dadamobile and CGR have teamed up to bring your favorite Christian artists right to your phone. Sign up today and get 10 complementary ringtones!
Tab Country
Did you know CGR has a sister site w/ country guitar tabs? Well we do! Its called Tab Country. It has a great archive with a lot of country tabs.
Rockin Tabs
Are you looking for a site that has rock guitar tabs? Then Rockintabs.com is the place for you. It is a budding site with many rock guitar tabs. Submit your tab today.
Tab Gallery
Tab Gallery has a compilation of christian, rock, and country tabs all in one place. Come visit us.