Guitar Tabs
song title    band name

Join Us Today!

Don't strum alone...
be a part of the largest online Christian music community. Browse thousands of guitar tabs and chat w/ musicians like yourself.


It's Free!

This tab has been rated a 4.00 out of 5 for accuracy. (2 votes)Sorry, but you must be logged in to rate this tab.
Click here to log-in, or you can click here to register.
(Registration is free)

All songs owned by corresponding publishing company. If you make copies of any song on this website, be sure to report your usage to CCLI.
Submitted by: headbanger13

Temptation Come My Way
The Showdown
Temptation Come My Way
 2007 Mono vs. Stereo
Drop D tuning

b = bend
v = vibrato
h = hammer on
p = pull off
pbr = pre bend and release
~ = let ring
wd = whammy bar down

Intro- Light Distortion
E[------------------------------------------------]
B[------------------------------------------------]
G[------------------------------------------------]
D[------------------------------------------------] 2x
A[-------------3-3s5v---------------3-5-----------]
D[---0--2h3h5-------------0--2h3h5-------6-5------]
Then play the intro 2 more times with heavy distortion. 
After one time, the lead plays this

Intro- Guitar 1
E[---17b--------------------------]
B[--------------------------------]
G[--------5--7--5--7--10b---5-----]
D[--------------------------------]
A[--------------------------------]
D[--------------------------------]

Verse
E[-------------------------------------------------------------------------]
B[-------------------------------------------------------------------------]
G[-------------------------------------------------------------------------]
D[---0--0-3-0-5-0/--0-0-3-0-6-5-3-0/--0-0-3-0-5-0-0/-----------------------]
A[---0--0-3-0-5-0/--0-0-3-0-6-5-3-0/--0-0-3-0-5-0-0/-----------------------]
D[---0--0-3-0-5-0/--0-0-3-0-6-5-3-0/--0-0-3-0-5-0-0/--5h6p5-3-5-3-5-3-6----]
p.m.    .             .                 .                                  

E[-------------------------------------------------------------------------]
B[-------------------------------------------------------------------------]
G[-------------------------------------------------------------------------]
D[---0--0-3-0-5-0/--0-0-3-0-6-5-3-0/--0-0-3-0-5-0/--5-3-0-5-3-0-5-3-0------] 2x
A[---0--0-3-0-5-0/--0-0-3-0-6-5-3-0/--0-0-3-0-5-0/--5-3-0-5-3-0-5-3-0--3b--]
D[---0--0-3-0-5-0/--0-0-3-0-6-5-3-0/--0-0-3-0-5-0/--5-3-0-5-3-0-5-3-0------]
p.m.    .             .                 .           . . . . . . . . .

Chorus
E[-------------------------------------------------------------------------]
B[-------------------------------------------------------------------------]
G[-------------------------------------------------------------------------]
D[-----------------------------------------------------------------s>------] 2x
A[-----------------------------------------------------------------s>------]
D[---0--0-5-3v--0-6-5v--0-8-6v--0-3h5p3-0--0-5-3v--0-6-5v--0-8-6v--s>------]
p.m.                                                                         

Intro 2x
Verse 2, same as Verse 1
Chorus

Bridge
E[-------------]
B[-------------]
G[-------------]
D[----5-3-0----] 8x
A[----5-3-0----]
D[----5-3-0----]
p.m.  . . .                          


E[--------------------------------------------------]
B[--------------------------------------------------]
G[--------------------------------------------------]
D[---0--0--3s5s3--0-0--0-0-0-0--3s5s3--3s5s6s5s3----] 4x
A[---0--0--3s5s3--0-0--0-0-0-0--3s5s3--3s5s6s5s3----]
D[---0--0--3s5s3--0-0--0-0-0-0--3s5s3--3s5s6s5s3----] 
p.m.    .              . .   .                                  

Chorus 4x, then


E[-----------------]
B[-----------------]
G[-----------------]
D[---0~---------s>-]
A[---0~---------s>-]
D[---0~---------s>-]
p.m.        

Intro 4x

END

Comments about this tab

No comments/corrections found. Add your own

Complimentary Christian Ringtones
Dadamobile and CGR have teamed up to bring your favorite Christian artists right to your phone. Sign up today and get 10 complementary ringtones!
Tab Country
Did you know CGR has a sister site w/ country guitar tabs? Well we do! Its called Tab Country. It has a great archive with a lot of country tabs.
Rockin Tabs
Are you looking for a site that has rock guitar tabs? Then Rockintabs.com is the place for you. It is a budding site with many rock guitar tabs. Submit your tab today.
Tab Gallery
Tab Gallery has a compilation of christian, rock, and country tabs all in one place. Come visit us.