Guitar Tabs
song title    band name

Join Us Today!

Don't strum alone...
be a part of the largest online Christian music community. Browse thousands of guitar tabs and chat w/ musicians like yourself.


It's Free!

This tab has not yet been rated for accuracy.Sorry, but you must be logged in to rate this tab.
Click here to log-in, or you can click here to register.
(Registration is free)

All songs owned by corresponding publishing company. If you make copies of any song on this website, be sure to report your usage to CCLI.
Submitted by: Woah_its_micah

So, I spent like way too long on the net looking for this tab, so I
 figured-Iíll tab it cuz no one else will. Itís not exactly
 perfect cuz it is my first tab so give me a break.
 Some of the lead parts might be a little off and 
I didnít put the harmony for most of the parts cuz
 itís not too hard to figure out. Itís pretty close though. Enjoi!

P =palm mute
~ =let ring
/ =Slide
h =hammer
p =pull off
^ =accent


Guitar 1

Intro
e|-----------------------------------------------
b|-----------------------------------------------
g|4-44-------4-44-----------------------------4--
d|4-44-------4-44-------5-55------5-55-522442245-
a|2-22-------2-22-------5-55------5-55-522442225-
E|----------------------3-33------3-33-3002200-3-

e|----------------------------------------------
b|----------------------------------------------
g|4-44---44--4-44-----------------------4-2---2-
d|4-44---44--4-44-------5-55-----55-55--4-2-5-2-
a|2-22---22--2-22-------5-55-----55-55--2-0-5-0-
E|----------------------3-33-----33-33------3---

Verse 1
e|------------------------------------------------------------------
b|------------------------------------------------------------------
g|444444444444444----------------44444444444444444------------------
d|44444444444444455555555555555554444444444444444455555555555555555-
a|22222222222222255555555555555552222222222222222255555555555555555-
E|---------------3333333333333333-----------------33333333333333333-

Pre verse
e|---------------------------------------------------------
b|---------------------------------------------------------
g|4-44-------4-44------------------------------------------
d|4-44-------4-44------5-55--5-55-5-5-55-5-5-55-55---7---9-
a|2-22-------2-22------5-55--5-55-5-5-55-5-5-55-55---7---9-
E|---------------------3-33--3-33-3-3-33-3-3-33-33---5---7-

Verse 2
e|-------------------------------------------------------------------
b|-------------------------------------------------------------------
g|4444444444444444----------------44444444444444444------------------
d|444444444444444455555555555555554444444444444444455555555555555555-
a|222222222222222255555555555555552222222222222222255555555555555555-
E|----------------3333333333333333-----------------33333333333333333-

chorus 1
e|-------------------------------------------------------------------
b|-------------------------------------------------------------------
g|44444444444444447777777777777777-----------------------------------
d|444444444444444477777777777777775555555555555555555555555555555555-
a|222222222222222255555555555555555555555555555555555555555555555555-
E|--------------------------------2222222222222222222222222222222222-

pre-verse 2
d|----------
a|5-5-5p4p2-
E|---------2

e|---------------------------------------------------------------
b|---------------------------------------------------------------
g|4~~-------------------------4~~----4444444444------------------
d|4~~---------55555555555555554~~----444444444455555555555555555-
a|2~~---------55555555555555552~~----222222222255555555555555555-
E|------------2222222222222222-----------------22222222222222222-
                                     PPPPPPP

chorus 2
e|-------------------------------------------------------------------
b|-------------------------------------------------------------------
g|44444444444444447777777777777777-----------------------------------
d|444444444444444477777777777777775555555555555555555555555555555555-
a|222222222222222255555555555555555555555555555555555555555555555555-
E|--------------------------------2222222222222222222222222222222222-
  ..............................X2...................................


Bridge
e|------------------------------------------------------------------
b|------------------------------------------------------------------
g|4444444444444444777777777777777744444444444444444-----------------
d|44444444444444447777777777777777444444444444444445555555555555555-
a|22222222222222225555555555555555222222222222222225555555555555555-
E|-------------------------------------------------3333333333333333-

 |--------------------------------------------------
 |--------------------------------------------------
 |4444444444444444777777777777777744444444444444444-
 |4444444444444444777777777777777744444444444444444-
 |2222222222222222555555555555555522222222222222222-
 |--------------------------------------------------


Outro
e|-------------------------------------------
b|-------------------------------------------
g|4-44-------4-44----------------------------
d|4-44-------4-44-------5-55------5-55-52244-
a|2-22-------2-22-------5-55------5-55-52244-
E|----------------------3-33------3-33-30022-


e|-------------------------------------------------------------------
b|-------------------------------------------------------------------
g|44444444444444447777777777777777-----------------------------------
d|444444444444444477777777777777775555555555555555555555555555555555-
a|222222222222222255555555555555555555555555555555555555555555555555-
E|--------------------------------2222222222222222222222222222222222-

 |-----
 |-----
 |-----
 |7-99-
 |7-99-
 |5-77-


Guitar 2

Intro
g|--------------------------------------------------
d|----------7-77-777------7-77-777---------2-22-222-
a|--------------------------------------------------
 
 |----------
 |----------
 |-------4--
 |-22442244-
 |-22442224-
 |-002200-2-



b|-10p7---------------------------------------------------------
g|-----9---7p6-7p6--9-----------------------------11h12p11------    
d|-----------------7------7-7h9-99-9p7-55------99---------12h14-
                                               PP


     ^    ^    ^    ^
d|9999-7777-5555-4444-
  PPP  PPP  PPP  PPP

Verse
 |------------------------------------------------------------
 |------------------------------------------------------------
 |4-44-----------4-44-----------------------------------------
 |4-44-/77777777-4-44-/77777777-5-55-/44444444-5-55-/44444444-
 |2-22-----------2-22-----------5-55-----------5-55-----------
 |------------------------------3-33-----------3-33-----------

Pre verse 

e|14-----------------------------------------------------------------
b|--15-1212----------------------------------------------------------
d|-------------------------------------------------------------------
g|-------------------------------------------------------------------
a|---------------9-9h10-1010-10p9--9-9h12-1212-12p9--9-10-99-9-12-99-

g|---1212-1111-------------------
d|------------12-11-99--9-9h11p9-
a|99-----------------------------

Verse 2
 |------------------------------------------------------------
 |------------------------------------------------------------
 |4-44-----------4-44-----------------------------------------
 |4-44-/77777777-4-44-/77777777-5-55-/44444444-5-55-/44444444-
 |2-22-----------2-22-----------5-55-----------5-55-----------
 |------------------------------3-33-----------3-33-----------

Chorus
 |----------------------------------------------------------------
 |----------------------------------------------------------------
 |-6/777777777777-1211111111111111-------------------------------
 |-6/777777777777-1211111111111111-55555555555555555555555555555-
 |-4/555555555555-109-9-9-9-9-9-9--55555555555555555555555555555-
 |----------------------------------33333333333333333333333333333-
  .................................X2.............................

Pre verse 2
 
d|44-4p2p0--
a|--------2-

Verse 3

a|9-10-9-9-12-9-9-10-9-10-9-9-12-9-9-10-
  P P  P P P  P P P  P P  P P P  P P P

a|9-10-9-9-12-9-9-10-9-10-9-9-12-9-9-10-
  P P  P P P  P P P  P P  P P P

d|12121212121212121212121212111111111111111199999999--------
a|-------------------------------------------------12121212-

g|11-12-11-11-14-11-11-12-11-12-11-11-12-11-11-12
  ........................X2.....................

b|151515151515151515151515151414141414141414------------------
g|------------------------------------------------------------
d|------------------------------------------99999999----------
a|--------------------------------------------------121212121-

Chorus
 |----------------------------------------------------------------
 |----------------------------------------------------------------
 |-6/777777777777-1211111111111111-------------------------------
 |-6/777777777777-1211111111111111-55555555555555555555555555555-
 |-4/555555555555-109-9-9-9-9-9-9--55555555555555555555555555555-
 |----------------------------------33333333333333333333333333333-
  .................................X2.............................

Bridge
g|--------------------------------------------------------------------
d|555555555555555544444444---------5555555555555555557777777777777777-
a|------------------------222222222-----------------------------------          

g|-----------------------------------------------------------
d|555555555555555444444444---------55555555599999999977777777
a|------------------------222222222--------------------------

g|----------------------
d|111111111119999999999-
a|----------------------


outro
g|--------------------------------------------------
d|----------7-77-777------7-77-777---------2-22-222-
a|--------------------------------------------------
 
 |------
 |------
 |------
 |-2244-
 |-2244-
 |-0033-


 |----------------------------------------------------------------
 |----------------------------------------------------------------
 |-6/777777777777-1211111111111111-------------------------------
 |-6/777777777777-1211111111111111-55555555555555555555555555555-
 |-4/555555555555-109-9-9-9-9-9-9--55555555555555555555555555555-
 |----------------------------------33333333333333333333333333333-

g|----77p6------
d|9p7-----7-7h9-
a|---9----------


Comments about this tab

No comments/corrections found. Add your own

Complimentary Christian Ringtones
Dadamobile and CGR have teamed up to bring your favorite Christian artists right to your phone. Sign up today and get 10 complementary ringtones!
Tab Country
Did you know CGR has a sister site w/ country guitar tabs? Well we do! Its called Tab Country. It has a great archive with a lot of country tabs.
Rockin Tabs
Are you looking for a site that has rock guitar tabs? Then Rockintabs.com is the place for you. It is a budding site with many rock guitar tabs. Submit your tab today.
Tab Gallery
Tab Gallery has a compilation of christian, rock, and country tabs all in one place. Come visit us.