Guitar Tabs
song title    band name

Join Us Today!

Don't strum alone...
be a part of the largest online Christian music community. Browse thousands of guitar tabs and chat w/ musicians like yourself.


It's Free!

Knapp, Jennifer - Into You

This tab has been rated a 4.33 out of 5 for accuracy. (3 votes)Sorry, but you must be logged in to rate this tab.
Click here to log-in, or you can click here to register.
(Registration is free)

All songs owned by corresponding publishing company. If you make copies of any song on this website, be sure to report your usage to CCLI.
Into You
Jennifer Knapp

The intro is in the F#m scale

Vs. F#m A..... last time play D

Chorus: A E F#m D 

Begining of 2nd verse, play this octave bend:

e----------------------------------------
B--7-------------7-----------7-----------
G--9b11----------9b11--------9b11-------9v/

Bridge: E D E D

Solo: It’s in the F#m scale, here’s the three octave bends which
basically make it up. 

e-------------------------------
B--7---------9-----------10------
G--9b11------11b13-------12b14---

Comments about this tab

brennan_medford - 2004-01-14

What is the Intro to this. I know its in the F#m scale but what is it?


ClthdwCmpssn - 2004-03-05

The intro to Into You is an appegio of an F#dom7 chord...
You can play it as Em with a Capo on the second fret also...
Tab

e----------------------------------------
B----------------------------------------
G----------------------------------------
D-------------2-----4---4---4-----X-X-X-4
A---------4-------------4---4-----X-X-X-4
E----2------------------2---2-----X-X-X-2


Gnarley Sick - 2005-01-15

the intro goes like this

e-----------------------------------------------
B-----------------------------------------------
G-----------------------------------------------
D--------------4---4-----x---x---2-h-4----------
A----------2---4---4-----x---x---2-h-4----------
E--2-h-4-------2---2-----x---x------------------

SCL: God Bless


mfarrell - 2006-06-23

do you have this in chord?


Add a comment/correction

Complimentary Christian Ringtones
Dadamobile and CGR have teamed up to bring your favorite Christian artists right to your phone. Sign up today and get 10 complementary ringtones!
Tab Country
Did you know CGR has a sister site w/ country guitar tabs? Well we do! Its called Tab Country. It has a great archive with a lot of country tabs.
Rockin Tabs
Are you looking for a site that has rock guitar tabs? Then Rockintabs.com is the place for you. It is a budding site with many rock guitar tabs. Submit your tab today.
Tab Gallery
Tab Gallery has a compilation of christian, rock, and country tabs all in one place. Come visit us.