Guitar Tabs
song title    band name

Join Us Today!

Don't strum alone...
be a part of the largest online Christian music community. Browse thousands of guitar tabs and chat w/ musicians like yourself.


It's Free!

This tab has not yet been rated for accuracy.Sorry, but you must be logged in to rate this tab.
Click here to log-in, or you can click here to register.
(Registration is free)

All songs owned by corresponding publishing company. If you make copies of any song on this website, be sure to report your usage to CCLI.
Submitted by: Awakening

Delirious -- Solid Rock

Tab is based upon the version of Solid Rock found on The Mission Bell album.

I could not find this tab and thought it might be useful. 
It is a great Contemporary Worship song. Enjoy!

Notes:
=================================================

RIFF #1 sounds like an acoustic guitar on the recording. 
If your band only has one guitarist, have the bassist play RIFF #1.
RIFF #1 might sound good with an Auto-Wah effect. Play around with it.

RIFF #2 is an electric guitar with mild distortion.
If your band only has one guitarist, this is the riff for them.
RIFF #2 is straight eighth notes (1 & 2 & 3 & 4 &)

RIFF #3 is the ending to RIFF #2 and ends each verse of the song.

=================================================

RIFF #1:
e--------------|-----------------
B--------------|-----------------
G--------------|-----------------
D--------------|-----------------
A-----7--5--7--|---7-----5p0-----
E--0-----------|0-----0-------3--

RIFF #2:
e-----------|---------|---------|---------|
B--88888888-|88888888-|---------|---------|
G--99999999-|99999999-|77777777-|77777777-|
D-----------|---------|99999999-|99999999-|
A-----------|---------|---------|---------|
E-----------|---------|---------|---------|

RIFF #2 CONTINUED:
e-----------|---------|---------|---------|
B-----------|---------|---------|---------|
G--66666666-|66666666-|55555555-|55555555-|
D--77777777-|77777777-|77777777-|77777777-|
A-----------|---------|---------|---------|
E-----------|---------|---------|---------|

RIFF #3:
e------------------|-----------------|-----------------|-----------------|
B------------------|-----------------|-----------------|-----------------|
G-1212121212121212-|1212121212121212-|1414141414141414-|1414141414141414-|
D-1414141414141414-|1414141414141414-|1616161616161616-|1616161616161616-|
A------------------|-----------------|-----------------|-----------------|
E------------------|-----------------|-----------------|-----------------|

RIFF #3 CONTINUED:
e------------------|-----------------|-----------------|-----------------|
B------------------|-----------------|-----------------|-----------------|
G-1616161616161616-|1616161616161616-|1818181818181818-|1818181818181818-|
D-1717171717171717-|1717171717171717-|1919191919191919-|1818181818181818-|
A------------------|-----------------|-----------------|-----------------|
E------------------|-----------------|-----------------|-----------------|

CHORUS CHORDS: E  A  D  A (Note the 2 different fingerings of A)

E        A        D        A        
e------  e------  e------  e------
B------  B--10--  B------  B--5---
G--9---  G--9---  G--7---  G--6---
D--9---  D--7---  D--7---  D--7---
A--7---  A--7---  A--5---  A--0---
E--0---  E------  E------  E------  

BASS NOTES FOR VERSES: 
Switch notes every two measures and repeat: E D C# C

BASS RIFF DURING CHORUS:
G--------------|
D--------------|
A--------5--7--|
E--0--0--------|

Do that 7 times, then:

G------------|
D------------|
A--2222------|
E-------3333-|

Comments about this tab

No comments/corrections found. Add your own

Complimentary Christian Ringtones
Dadamobile and CGR have teamed up to bring your favorite Christian artists right to your phone. Sign up today and get 10 complementary ringtones!
Tab Country
Did you know CGR has a sister site w/ country guitar tabs? Well we do! Its called Tab Country. It has a great archive with a lot of country tabs.
Rockin Tabs
Are you looking for a site that has rock guitar tabs? Then Rockintabs.com is the place for you. It is a budding site with many rock guitar tabs. Submit your tab today.
Tab Gallery
Tab Gallery has a compilation of christian, rock, and country tabs all in one place. Come visit us.