Guitar Tabs
song title    band name

Join Us Today!

Don't strum alone...
be a part of the largest online Christian music community. Browse thousands of guitar tabs and chat w/ musicians like yourself.


It's Free!

This tab has not yet been rated for accuracy.Sorry, but you must be logged in to rate this tab.
Click here to log-in, or you can click here to register.
(Registration is free)

All songs owned by corresponding publishing company. If you make copies of any song on this website, be sure to report your usage to CCLI.
Submitted by: chjolo

This is off of Good Monsters.

Intro/Verse riff:

 Dm            Bb            F             Am7     
|-------------|-------------|-------------|-------------|
|-------------|-------------|-------------|-------------|
|-------2-----|-------3-----|-------2-----|-------0-----| x6
|-----3---3---|-----3---3---|-----3---3---|-----2---2---|
|-5-5-------5-|---5-------5-|---3-------3-|---3-------3-|
|-------------|-6-----------|-1-----------|-5-----------|

Pre Chorus:

Bb  F  C  Dm
Bb  F  C (Hold the C)

Chorus:

  Bb                F    [x3]  C
|----1---1---1---1------5---|----------|
|--3---3---3---3---3/6------|----------|
|---------------------------|--5-------|
|---------------------------|--5-------|
|---------------------------|--3-------|
|---------------------------|----------|

Verse 2:
Just play the riff again-  Dm  Bb  F  Am7  [x2]

[Pre Chorus]
[Chorus]

Instrumental: 
It sounds cool if you tremolo pick this.

    Dm      Bb         F       C 
|-1/13--12--10-------------------------|
|----------------/13--10--------------|
|--------------------------12--10--9---| x2
|--------------------------------------|
|--------------------------------------|
|--------------------------------------|

Bridge: Eb  Bb  C [x2]

Pre Chorus: Bb  F  C  Dm
            Bb  F  C (Hold C)

[Chorus]                


Everywhere I have an Am7, I believe it is something else. For now,
until I figure out what it is, Im just playing an A power chord.
If someone can figure that out, that would be great.

Enjoy!

Comments about this tab

No comments/corrections found. Add your own

Complimentary Christian Ringtones
Dadamobile and CGR have teamed up to bring your favorite Christian artists right to your phone. Sign up today and get 10 complementary ringtones!
Tab Country
Did you know CGR has a sister site w/ country guitar tabs? Well we do! Its called Tab Country. It has a great archive with a lot of country tabs.
Rockin Tabs
Are you looking for a site that has rock guitar tabs? Then Rockintabs.com is the place for you. It is a budding site with many rock guitar tabs. Submit your tab today.
Tab Gallery
Tab Gallery has a compilation of christian, rock, and country tabs all in one place. Come visit us.