Guitar Tabs
song title    band name

Join Us Today!

Don't strum alone...
be a part of the largest online Christian music community. Browse thousands of guitar tabs and chat w/ musicians like yourself.


It's Free!

This tab has not yet been rated for accuracy.Sorry, but you must be logged in to rate this tab.
Click here to log-in, or you can click here to register.
(Registration is free)

All songs owned by corresponding publishing company. If you make copies of any song on this website, be sure to report your usage to CCLI.
Submitted by: papersun87

Title: Anastasia
Artist: Brave Saint Saturn
Album: The Light of Things Hoped For


Copyright  Tooth and Nail Records 2003


Tabbed by: Taylor Venema (papersun87@gmail.com)


This is a tab for the Brave Saint Saturn song, Anastasia. I felt like the other 
tabs were not very accurate and since I was figuring it out anyway, I figured 
why not post a new tab?

These chords are mostly just a root and a fifth, but I will post diagrams 
anyway. These are in order of appearance:

  E     x799xx (include the open low E string if you feel like)
  C#m   x466xx
  F#    2443xx
  B     x244xx (or) 7998xx (which I prefer for this song)
  G#m   4664xx
  A     x022xx (or) 5776xx (again, which I prefer)

h  - hammer-on
p  - pull-off
b  - bend
r  - release
/  - slide up/down
X  - palm mute
() - natural harmonic
*  - pinch harmonic
"  - tremolo picking


Tuning: Standard (EADGBe)


INTRO:

e|-----------------------------------------------------|
B|--------9-----------9------------10-----------9------|
G|-----9-----9-----9-----9------9------9-----9-----9---|
D|--7-----------9-----------10------------9------------|
A|-----------------------------------------------------|
E|-----------------------------------------------------|


e|-----------------------------------------------------|
B|--------9-----------9------------10-----------9------|
G|-----9-----9-----9-----9------9------9-----9-----9---|
D|--7-----------9-----------10------------9------------|
A|-----------------------------------------------------|
E|-----------------------------------------------------|


e|-----------------------------------------------------|
B|--------9-----------9------------10-----------9------|
G|-----9-----9-----9-----9------9------9-----9-----9---|
D|--7-----------9-----------10------------9------------|
A|-----------------------------------------------------|
E|-----------------------------------------------------|


e|-----------------------------------------------------|
B|--------9-----------9------------10-----------9------|
G|-----9-----9-----9-----9------9------9-----9-----9---|
D|--7-----------9-----------10------------9------------|
A|-----------------------------------------------------|
E|-----------------------------------------------------|


e|-----------------------------------------------------|
B|--------9-----------9------------10-----------9------|
G|-----9-----9-----9-----9------9------9-----9-----9---|
D|--7-----------9-----------10------------9------------|
A|-----------------------------------------------------|
E|-----------------------------------------------------| (yeah, FIVE TIMES)


VERSE ONE


E     C#m     F#     B     (play eight times)


PRE-CHORUS ("She hits the mark . . .")


E     C#m     G#m     A     (play once)


VERSE ONE continued ("Far away in distant skies . . .")


E     C#m     F#     B     (play eight times)


PRE-CHORUS again

E     C#m     G#m     A     B


CHORUS ("When Anastasia smiles . . .")


E     G#m     A     B

E     G#m     A     B

E     G#m     A     B

E     G#m     A     B


BRIDGE


Guitar I:

    x x x x x x x x x  x x x x x x x x x
e|---------------------------------------|
B|---------------------------------------|
G|---------------------------------------|
D|--------6---6---6----------------------|
A|--7-7-7---7---7---7--------3---3---3---|
E|---------------------4-4-4---4---4---4-|


    x x x x x x x x x  x x x x x x x x x
e|---------------------------------------|
B|---------------------------------------|
G|---------------------------------------|
D|---------------------------------------|
A|--------4---4---4----------6---6---6---|
E|--5-5-5---5---5---5--7-7-7---7---7---7-|


x x x x x x x x x  x x x x x x x x x
e|---------------------------------------|
B|---------------------------------------|
G|---------------------------------------|
D|--------6---6---6----------------------|
A|--7-7-7---7---7---7--------3---3---3---|
E|---------------------4-4-4---4---4---4-|


    x x x x x x x x x  x x x x x x x x x
e|---------------------------------------|
B|---------------------------------------|
G|---------------------------------------|
D|---------------------------------------|
A|--------4---4---4----------6---6---6---|
E|--5-5-5---5---5---5--7-7-7---7---7---7-|


e|---------------------------------------|
B|---------------------------------------|
G|---------------------------------------|
D|--------6---6---6----------------------|
A|--7-7-7---7---7---7--------3---3---3---|
E|---------------------4-4-4---4---4---4-|


e|---------------------------------------|
B|---------------------------------------|
G|---------------------------------------|
D|---------------------------------------|
A|--------4---4---4----------6---6---6---|
E|--5-5-5---5---5---5--7-7-7---7---7---7-|


e|---------------------------------------|
B|---------------------------------------|
G|---------------------------------------|
D|--------6---6---6----------------------|
A|--7-7-7---7---7---7--------3---3---3---|
E|---------------------4-4-4---4---4---4-|


e|---------------------------------------|
B|---------------------------------------|
G|---------------------------------------|
D|---------------------9-9-9-9-9-9-9-9---|
A|--------4---4---4----9-9-9-9-9-9-9-9---|
E|--5-5-5---5---5---5--7-7-7-7-7-7-7-7---|



Guitar II:


e|------------------------------------|
B|------------------------------------|
G|------------------------------------|
D|------------------------------------|
A|--6--7--7//3-3-//-7-7/6-6/7--7/9-9--|
E|------------------------------------|


e|------------------------------------|
B|------------------------------------|
G|------------------------------------|
D|------------------------------------|
A|--6--7--7//3-3-//-7-7/6-6/7--7/9-9--|
E|------------------------------------|


e|------------------------------------|
B|------------------------------------|
G|------------------------------------|
D|------------------------------------|
A|--6-6-6--7-7-7-7-7//3-3-3-3-3-3-3---|
E|------------------------------------|

e|------------------------------------------|
B|------------------------------------------|
G|------------------------------------------|
D|------------------------------------------|
A|--7-7--6-6-6--7-7-7-7-7//9-9-9-9-9-9-9-9--|
E|------------------------------------------|

CHORUS


E     C#m     A     B

E     C#m     A     B

E     C#m     A     B

E     C#m     A     B


OUTRO (Like intro)


e|-----------------------------------------------------|
B|--------9-----------9------------10-----------9------|
G|-----9-----9-----9-----9------9------9-----9-----9---|
D|--7-----------9-----------10------------9------------|
A|-----------------------------------------------------|
E|-----------------------------------------------------|


e|-----------------------------------------------------|
B|--------9-----------9------------10-----------9------|
G|-----9-----9-----9-----9------9------9-----9-----9---|
D|--7-----------9-----------10------------9------------|
A|-----------------------------------------------------|
E|-----------------------------------------------------|


e|-----------------------------------------------------|
B|--------9-----------9------------10-----------9------|
G|-----9-----9-----9-----9------9------9-----9-----9---|
D|--7-----------9-----------10------------9------------|
A|-----------------------------------------------------|
E|-----------------------------------------------------|


e|-----------------------------------------------------|
B|--------9-----------9------------10-----------9------|
G|-----9-----9-----9-----9------9------9-----9-----9---|
D|--7-----------9-----------10------------9------------|
A|-----------------------------------------------------|
E|-----------------------------------------------------|


Fade out.

Comments about this tab

No comments/corrections found. Add your own

Complimentary Christian Ringtones
Dadamobile and CGR have teamed up to bring your favorite Christian artists right to your phone. Sign up today and get 10 complementary ringtones!
Tab Country
Did you know CGR has a sister site w/ country guitar tabs? Well we do! Its called Tab Country. It has a great archive with a lot of country tabs.
Rockin Tabs
Are you looking for a site that has rock guitar tabs? Then Rockintabs.com is the place for you. It is a budding site with many rock guitar tabs. Submit your tab today.
Tab Gallery
Tab Gallery has a compilation of christian, rock, and country tabs all in one place. Come visit us.