Guitar Tabs
song title    band name

Join Us Today!

Don't strum alone...
be a part of the largest online Christian music community. Browse thousands of guitar tabs and chat w/ musicians like yourself.


It's Free!

This tab has been rated a 5.00 out of 5 for accuracy. (1 vote)Sorry, but you must be logged in to rate this tab.
Click here to log-in, or you can click here to register.
(Registration is free)

All songs owned by corresponding publishing company. If you make copies of any song on this website, be sure to report your usage to CCLI.
Submitted by: Snow_Rider04

Anberlin
Change the World
Blueprints for the Blackmarket
2003 Tooth and Nail Records

Drop D Tuning
X -Mute
/ -Slide
P.M -Palm Mute
<><><> -Pick Slide
~ -Let ring

[Intro]
       Gtr1                            Gtr2
e-----------------------|   e------------------------|
B-----------------------|   B------------------------|
G-7-----5----10------XX-|   G-14-----10----17-----XX-|
D-7-x12-5-x4-10-x12--XX-|   D-14-x12-10-x4-17-x12-XX-|
A-5-----3-----8------XX-|   A-12-----12----15-----XX-|
E-----------------------|   E------------------------|


  1st time both         2nd time, Gtr1
|---------------------------------------------------------|
|---------------------------------------------------------|
|-7-7-----7-----9-9-----10-10-----10-----10-10-----10-----|
|-7-7--0--7--0--9-9--0--10-10--0--10--0--10-10--0--10-x16-|          x2
|-5-5--0--5--0--7-7--0---8--8--0---8--0---8--8--0---8-----|
|------0-----0-------0---------0------0---------0---------|

2nd time Gtr 2
|----------------------------------------------------|
|----------------------------------------------------|
|-7-7---/9--9-----10-10-----10-----10-10------10-----|
|-7-7--0/9--9--0--10-10--0--10--0--10-10---0--10-x16-|
|-5-5--0/7--7--0---8--8--0---8--0---8---8--0---8-----|
|------0/------0---------0------0----------0---------|
Slide!↑↑↑

[Verse]

Gtr1                              
|---------------------------------|  
|-6-5---8-6-5h6---x3-------------|      Gtr 1 2nd time
|----5h7---------/-----10-10------|         -10-10-   
|----------------------10-10-x16--|   x2    -10-10- (x32)     
|-----------------------8--8------|         -----8-
|---------------------------------|  

    Gtr2                     
|---------------------------|
|---------------------------|          2nd Time Gtr2
|---P.M-----------10--------|         -10-10--10-10-
|---(x6)----------10--x16---|   x2    -10-10--10-10-  x4
|--55555555--------8--------|         --8--8---8--8-
|---------------------------|
                                     Staccato Like
[Chorus] 

Both Gtrs
|-------------------------------------------------------------------------------------------------|
|-------------------------------------------------------------------------------|
|-10------12------10------5--------------10------5---------------10------5------|
|-10-x16--12-x16--10-x16--5-x16--3-------10-x16--5-x16---3-------10-x16--5-x16--|
|-8-------10-------8------3------3-x32----8------3-------3-x32----8------3------|
|--------------------------------3-----------------------3----------------------|


Gtr1 or Both
|----------------------|
|----------------------|
|----------------------|
|------------------555-|   x2
|-3-5-----3-5------555-|
|----3333----3333--555-|

[Verse]

   Gtr1                                     
|---------------------------------|   
|-6-5----8-6-5h6--x3-------------|          2nd time          
|----5h7----------/-----10-10-----|         -10-   
|-----------------------10-10-x16-|  x2     -10- (x32)      
|------------------------8--8-----|         --8-   
|---------------------------------|  

    Gtr2          1st time                 
|--------------|-----------|
|--------------|-----------|           2nd Time 
|-----P.M------|--10-------|          -1010--1010-
|----(x16)-----|--10--x16--| x2       -1010--1010 x4    
|---55555555---|---8-------|          --8-8---8-8-
|--------------|-----------|          Staccato Like
       x3                              
      ↑ (Only play this the second time.) 	
 
[Pre-Chorus] 
|-----------------------------|
|-----------------------------|
|-10------77--99--1010--1212--|
|-10-x16--77--99--1010--1212--|
|-8-------55--77---8-8--1010--|
|-----------------------------|

[Chorus] Both Gtrs
|-------------------------------------------------------------------|
|-------------------------------------------------------------------|
|-10------5-------------10------5------------10------5--------------|
|-10-x16--5-x16--3------10-x16--5-x16--3-----10-x16--5-x16---3------|
|-8-------3------3-x32---8------3------3-x32--8------3-------3--x32-|
|----------------3---------------------3---------------------3------|

Gtr1 or Both
|----------------------|
|----------------------|
|----------------------|
|------------------555-|    x2
|-3-5-----3-5------555-|
|----3333----3333--555-|


[Bridge]

Both
|---------------------------------------------------------|
|---------------------------------------------------------|                   
|-7-7-----7-----9-9-----10-10-----10-----10-10-----10-----|                   -10-
|-7-7--0--7--0--9-9--0--10-10--0--10--0--10-10--0--10-x16-|   x2     2nd time -10-  x32
|-5-5--0--5--0--7-7--0---8--8--0---8--0---8--8--0---8-----|                   --8-
|------0-----0-------0---------0------0---------0---------|

Gtr 1 Solo
|---------|                            
|--65-----|                            
|-----75--|     x12  
|---------|
|---------|
|---------|

Gtr2
|-----------------------------------------|
|-----------------------------------------|
|---9-10---5-7---------9-10---------------|
|---9-10---5-7---------9-10---------------|
|---7--8---3-5---------7--8-------<><><>--|    
|---------------------------------<><><>--|
Pick slide on last Gtr 1 solo.


[Pre Outro]

Both Gtrs
|--------------------------------------------|
|--------------------------------------------|
|-10------12------10------5----7-------9-10--|
|-10-x16--12-x16--10-x16--5-x4-7-x4----9-10--|
|-8-------10-------8------3----5-------7--8--|
|--------------------------------------------|

[Outro] 

Both Gtrs
|----------------------------------------------------------------------------|
|----------------------------------------------------------------------------|
|-10------5--------------10------5-------------10------5---------------------|
|-10-x16--5-x16--3-------10-x16--5-x16--3------10-x16--5-x16---3--------3~~--|
|-8-------3------3-x32----8------3------3-x32---8------3-------3-x32----0~~--|
|----------------3----------------------3----------------------3--------0~~--|




Some notes:
When I have something like this:
            |---34-3 x3  
            |-------/
     it means play that section 3 times before the next part.

REMEBER THE SLIDE during the intro for Guitar 2!

For the verse first time play the first secion, between the two |--|
then play the beginning rift, either the fives or the notes and hammer ons, then
the 2nd part, staccato part x4 or the regular x32

In second verse the first section only Gtr 1 by itself, then on second 
time round Gtr 2 comes in

Solo just do it if you cnt count the 12 get the Gtr2 to help you out

I am not sure on the Pre-Outro if it is five then seven in strums of four but if you
listen really carefully you can sorta hear the note change


Thats all hope you enjoy and feel free to comment. Just keep it clean

Snow_Rider04

Comments about this tab

No comments/corrections found. Add your own

Complimentary Christian Ringtones
Dadamobile and CGR have teamed up to bring your favorite Christian artists right to your phone. Sign up today and get 10 complementary ringtones!
Tab Country
Did you know CGR has a sister site w/ country guitar tabs? Well we do! Its called Tab Country. It has a great archive with a lot of country tabs.
Rockin Tabs
Are you looking for a site that has rock guitar tabs? Then Rockintabs.com is the place for you. It is a budding site with many rock guitar tabs. Submit your tab today.
Tab Gallery
Tab Gallery has a compilation of christian, rock, and country tabs all in one place. Come visit us.