Guitar Tabs
song title    band name

Join Us Today!

Don't strum alone...
be a part of the largest online Christian music community. Browse thousands of guitar tabs and chat w/ musicians like yourself.


It's Free!

This tab has been rated a 5.00 out of 5 for accuracy. (1 vote)Sorry, but you must be logged in to rate this tab.
Click here to log-in, or you can click here to register.
(Registration is free)

All songs owned by corresponding publishing company. If you make copies of any song on this website, be sure to report your usage to CCLI.
Submitted by: Mathijs

Burlap to Cashmere
Treasures in Heaven
1998 A&M Records Inc.
Tabbed by Mathijs van Gorcum

I have Improved the tabs I found on here a bit.

1st verse

  C9	       G/B	    Bm	 	 Cmaj7
e------------|------------|------------|--------3x--|
B-3--x-3--x--|-3--x-3--x--|-3--x-3--x--|-5--x-5--x--|
G-0--x-0--x--|-0--x-0--x--|-4--x-4--x--|-4--x-4--x--|
D------------|------------|------------|------------|
A-3--x-3--x--|-2--x-2--x--|-2--x-2--x--|-3--x-3--x--|
E------------|------------|------------|------------|

  C9	       G/B	    Bm	 	 Cmaj7
e------------|------------|------------|------5p3x--|
B-3--x-3--x--|-3--x-3--x--|-3--x-3--x--|-5--x-5--x--|
G-0--x-0--x--|-0--x-0--x--|-4--x-4--x--|-4--x-4--x--|
D------------|------------|------------|------------|
A-3--x-3--x--|-2--x-2--x--|-2--x-2--x--|-3--x-3--x--|
E------------|------------|------------|------------|

  C9	       G/B	    Bm	 	 Cmaj7
e------------|------------|------------|------------|
B-3--x-3--x--|-3--x-3--x--|-3--x-3--x--|-55-x-5--x--|
G-0--x-0--x--|-0--x-0--x--|-4--x-4--x--|-44-x-4--x--|
D------------|------------|------------|------------|
A-3--x-3--x--|-2--x-2--x--|-2--x-2--x--|-33-x-3--x--|
E------------|------------|------------|------------|

Pre-chorus

    C                  Em
I ve Seen you crying...
    C                  Em
    C                  Em	(D/F# G)

Chorus:
       
G        C9         
Store up ... (3x)

C                           	            D
Dont you wait...


2nd verse

  C9	       G/B	    Bm	 	 Cmaj7
e------------|------------|------------|------5-5/7-|
B-3--x-3--x--|-3--x-3--x--|-3--x-3--x--|-5--x-5-----|
G-0--x-0--x--|-0--x-0--x--|-4--x-4--x--|-4--x-4-----|
D------------|------------|------------|------------|
A-3--x-3--x--|-2--x-2--x--|-2--x-2--x--|-3--x-3-----|
E------------|------------|------------|------------|

  C9	       G/B	    Bm	 	 Cmaj7
e------------|------------|------------|------5p3h5/7|
B-3--x-3--x--|-3--x-3--x--|-3--x-3--x--|-5--x-5------|
G-0--x-0--x--|-0--x-0--x--|-4--x-4--x--|-4--x-4------|
D------------|------------|------------|-------------|
A-3--x-3--x--|-2--x-2--x--|-2--x-2--x--|-3--x-3------|
E------------|------------|------------|-------------|

  C9	       G/B	    Bm	 	 Cmaj7
e------------|------------|------------|------------|
B-3--x-3--x--|-3--x-3--x--|-3--x-3--x--|-55-x-5--x--|
G-0--x-0--x--|-0--x-0--x--|-4--x-4--x--|-44-x-4--x--|
D------------|------------|------------|------------|
A-3--x-3--x--|-2--x-2--x--|-2--x-2--x--|-33-x-3--x--|
E------------|------------|------------|------------|

Pre-chorus

Chorus

During the solo the acoustic guitar I have been tabbing
uptill now plays the riff used in the verse 
(maybe with some variation in Cmaj7-chord)


e-----------5-5/75--------------------------
B---5-7-8-5---------8-7-5--------------------
G-7-----------------------7-7--5p4h5/75p4h5-
D--------------------------------------------
A--------------------------------------------
E--------------------------------------------

e-----8-7-----10-7-----12---------------------
B---------8--------8------12------------------
G-5-7-------7--------7-------9-7-9--7h9/10/11-
D---------------------------------------------
A---------------------------------------------
E---------------------------------------------

e-10-10-10-10-8-8-8-7-7-7-5-5-5-3-3-3-------------
B-------------------------------------7-7-7-5-5-5-
G-------------------------------------------------
D-------------------------------------------------
A-------------------------------------------------
E-------------------------------------------------

e----------------------------10----
B-------------------5-7-8-10----10-
G-5p4h5/75p4h5--/7----------------
D----------------------------------
A----------------------------------
E----------------------------------


Bridge:

The piano is playing some riff, on guitar it would be 
something like this:

e-------------------------------
B--3---3---3---5----------------
G----0---0---0---0--------------
D-------------------------------
A-------------------------------
E-------------------------------

Chords used:

C9 G(/B) Bm Cmaj7

Pre-Chorus

Followed by the Chorus:

Bm       C         
Store up... (2x, played by bass and piano)

G        C9         
Store up.. (3x)

C             D
Dont you ...

Outtro:

C Em Bm Cmaj7 (2x)

Chords used:

C9:	X32033
G/B:	X20033
Bm:	X24432
Cmaj7:	X3X453 or X32000
C:	X32010
D:	XX0232

Comments about this tab

No comments/corrections found. Add your own

Complimentary Christian Ringtones
Dadamobile and CGR have teamed up to bring your favorite Christian artists right to your phone. Sign up today and get 10 complementary ringtones!
Tab Country
Did you know CGR has a sister site w/ country guitar tabs? Well we do! Its called Tab Country. It has a great archive with a lot of country tabs.
Rockin Tabs
Are you looking for a site that has rock guitar tabs? Then Rockintabs.com is the place for you. It is a budding site with many rock guitar tabs. Submit your tab today.
Tab Gallery
Tab Gallery has a compilation of christian, rock, and country tabs all in one place. Come visit us.