Guitar Tabs
song title    band name

Join Us Today!

Don't strum alone...
be a part of the largest online Christian music community. Browse thousands of guitar tabs and chat w/ musicians like yourself.


It's Free!

This tab has not yet been rated for accuracy.Sorry, but you must be logged in to rate this tab.
Click here to log-in, or you can click here to register.
(Registration is free)

All songs owned by corresponding publishing company. If you make copies of any song on this website, be sure to report your usage to CCLI.
Submitted by: mitcarwright

12 Stones
This Dark Day

This is my first time writing a tab so let me know how it is.
Also, I figured this out by ear so it is probably a little
ruff.  Most of the main parts are right (I think); I am just 
not sure about the first verse, part of the intro and parts of 
the bridge so let me know if there are needed corrections (I am 
sure there are). Enjoy and God bless. 
Tuning: D A D G B E (drop d)
Intro: Distortion
E ------------------
B -7-5-7--7-5-787---
G 4-4---44-4--------
D ------------------
A ------------------
D ------------------

E -------------------------------------------
B -------------------------------------------
G -------------------------------------------
D -999-------999-------000-7777-555-55-77-44- 
A -999-9-454-999-9-454-000------555---------- (Repeat 2x)
D -999-------999-------000------555----------

Verse 1: Clean (Rhythm Guitar)
E ----------------------------------------------------
B ----------------------------------------------------
G -11-9-7-9--11-7-6--11-9-7-9--11-7-6--11-14--7-9-7-9-
D -9--7-5-7--9--5-4--9--7-5-7--9--5-4--9--12--5-7-5-7- (You can figure out 
A -9--7-5-7--9--5-4--9--7-5-7--9--5-4--9--12--5-7-5-7-  the strum pattern)
D -9--7-5-7--9--5-4--9--7-5-7--9--5-4--9--12--5-7-5-7-

End of verse: Lead (Distortion)
E -------------
B --8-78--8-78-
G -4-4--44-4---
D -------------
A -------------
D -------------

Chorus(1x): Distortion
E -----------------------
B -----------------------
G ----------------------- (Again, figure out strum pattern)
D -9999-0000-777-77-5555-
A -9999-0000-777-77-5555- (Repeat 2x)
D -9999-0000-777-77-5555- 


E -------------------------------------------
B -------------------------------------------
G -------------------------------------------
D -999-------999-------000-7777-555-55-77-44- 
A -999-9-454-999-9-454-000------555---------- (1x)
D -999-------999-------000------555----------

Verse 2: Distortion
E -------------------------------------------------
B -------------------------------------------------
G -------------------------------------------------
D -9999--9999--9999--9999--9999--9999--9999--9999--
A -9999--9999--9999--9999--9999--9999--9999--9999--
D -9999--9999--9999--9999--9999--9999--9999--9999--
pm.----------------------------------------------]

E ----------------
B ----------------
G -11-14----------
D -9--12--5-7-5-7- (You can figure out the strum pattern)
A -9--12--5-7-5-7-
D -9--12--5-7-5-7-

End of verse: Lead (Distortion)
E -------------
B --8-78--8-78-
G -4-4--44-4---
D -------------
A -------------
D -------------

Chorus(1x): Distortion
E -----------------------
B -----------------------
G ----------------------- (Again, figure out strum pattern)
D -9999-0000-777-77-5555-
A -9999-0000-777-77-5555- (Repeat 2x)
D -9999-0000-777-77-5555-

Bridge: Distortion
E ---------------------------
B ---------------------------
G ---------------------------
D -2222-2222--5555--1212--77- (Repeat 2x)
A -2222-2222--5555--1212--77-
D -2222-2222--5555--1212--77-
                           
E ---------------------------
B ---------------------------
G -----------------7-6/7--7-6b(7)- (Repeat 2x)
D -9999999999999--4-4---44-4------
A -9999999999999-----------------
D -9999999999999----------------
pm.-------------]

Chorus(2x)

Outro: Distortion
E -------------------------------------------
B -------------------------------------------
G -------------------------------------------
D -999-------999-------000-7777-555-55-77-44- 
A -999-9-454-999-9-454-000------555---------- (Repeat 1x)
D -999-------999-------000------555----------

Comments about this tab

No comments/corrections found. Add your own

Complimentary Christian Ringtones
Dadamobile and CGR have teamed up to bring your favorite Christian artists right to your phone. Sign up today and get 10 complementary ringtones!
Tab Country
Did you know CGR has a sister site w/ country guitar tabs? Well we do! Its called Tab Country. It has a great archive with a lot of country tabs.
Rockin Tabs
Are you looking for a site that has rock guitar tabs? Then Rockintabs.com is the place for you. It is a budding site with many rock guitar tabs. Submit your tab today.
Tab Gallery
Tab Gallery has a compilation of christian, rock, and country tabs all in one place. Come visit us.