Guitar Tabs
song title    band name

Join Us Today!

Don't strum alone...
be a part of the largest online Christian music community. Browse thousands of guitar tabs and chat w/ musicians like yourself.


It's Free!

This tab has not yet been rated for accuracy.Sorry, but you must be logged in to rate this tab.
Click here to log-in, or you can click here to register.
(Registration is free)

All songs owned by corresponding publishing company. If you make copies of any song on this website, be sure to report your usage to CCLI.
Submitted by: Jbreedlo

Welcome To Our World
Words and music by Chris Rice
©1995 Clumsy Fly Music

This is an amazing song, especially for Christmas – so beautifully
written! There are some good chord sheets for this song already up 
on the site, but I’ve tabbed out the chords and melody here. I tried 
to format the chords after piano (where the notes fall right in a row 
down the fretboard, ie: x532xx is Dm), but after you get the gist, there 
are plenty of other chord shapes you could add. I had included some 
lyrics as reference points for the melody, but CGR doesn’t allow them, 
so you will just have to depend on your ears. Don’t hold me to the chord 
names – I learned my music theory on the streets! Enjoy!    
	
Key:

Bold	=	Play with thumb
()	=	Optional notes
~	=	Let ring
/	=	Slide up
	=	Slide down
  
Intro [and Turnaround]:

    E   E/G#   B/A    A/C#   E/B   B2      E     A/E (add9) 
e|------------------------------------- [--0--------------]
B|-----0---------------2-----------2--- [--0--------------]
G|--1h2---4-----2---2--2------4----4--- [--1-1-1-1-2--4~--]
D|--2-----2-----1h2-1--2------2-6--4--- [--2--2-4--2--2~--]
A|--2-----x-----0---0--4------2----2-4- [--2-------0--0~--]
E|--0-----4------------------(0)------- [--0~------0~-----]

Verses 1-3:

    E   E/G#      B/A   A/C#	    E    C#m  F#/Bb
e|-------------------------------------------------
B|-----0------------------2-----------0-------(0~)-
G|--1h2---4--------2---2--2--------1h2-1---1---3~--
D|--2-----2--------1h2-1--2--------2------2----4~--
A|--2-----x--------0------4--------2------4----x---
E|--0-----4------------------------0-----------6~--


  C#m  E/G#      B/A     A/C#    E/B  Cm(dim)/G#   C#m                   
e|--------------------------------------------------4---
B|----0-----------4h5-4---2---------------4---------5---
G|-1/2--4---------4---4---2--------4------5---------6---
D|-2----2---------4---4---2--------2-6----4---------6---
A|-4----x--------(6)-(6)--4--------2------3---------4---
E|------4---------5---------------(0)-----4-------------

  E/B   B2 	 E      A/E (add9)  
e|----------- [--0--------------]	(Repeat Turnaround 2x 
B|------2---- [--0--------------]	 after verses 2 and 3)
G|-4----4---- [--1-1-1-1-2--4~--]
D|-2-6--4---- [--2--2-4--2--2~--]
A|-2----2—4-- [--2-------0--0~--]
E|(0)-------- [--0~------0~-----]


Verse 4: Key Change to F after Turnaround

    F    F/A      C/Bb   Bb/D      F      Dm   G/B   
e|--------------------------------------------------
B|-----1------------------------------1---------0~--
G|--2h3---5--------3---3--3--------2h3-2----2---4~--
D|--3-----3--------2h3-2--3--------3------3-----5~--
A|-(3)----x--------1---1--5--------3------5-----x---
E|--1-----5------------------------1------------7~--

   Dm     F/A      C/Bb    Bb/D     F/C  C#m(dim)/A   Dm                   
e|----------------------------------------------------5---
B|----1-------------5h6-5---3----------------5--------6---
G|-2/3-----5--------5---5---3--------5-------6--------7---
D|-3-------3--------5---5---3--------3-7-----5--------7---
A|-5-------x-------(7)-(7)--5--------3-------4--------5---
E|---------5--------6------------------------5------------

  F/C  C2         F        Bb/F (add9)
e|------------ [--------------------]
B|------3----- [--1-----------------]
G|-5----5----- [--2-2-2-0-2--3--5---]
D|-3-7--5----- [--3--3-------3--3---]
A|-3----3-5--- [--3----------1--1---]
E|------------ [--1~---------1~-----]

Verse 5 (very light, up an octave):
   F     F/A     C/Bb         F         Dm  G/B 
e|------8--------------------------8-----5-5-7~--
B|-10h11--10------------------10h11-10---6---8~--
G|-10-----10------9/10-9-7----10---------7---7~--
D|(10)----10------8----8-8----10---------0-------
A|-8------12------8-----------8------------------
E|-------------------------------------------7~--

  Dm     F/A    C/Bb      Bb/D   F/C  C#m(dim)/A   Dm
e|-5h6-8-(5)-----12/13-12--10-----8p5--------------5---
B|-6------6------11----11--11-----6-------8-----6--6---
G|-7-----(5)---------------10-----5-------6--------7---
D|-0-------------8------------------------7--------0---
A|-----------------------------------------------------
E|-------(5)--------------(10)-------------------------

   F/C   C      Dm      F/C  C2  Bb/D              
e|--------------5-----------------------------
B|-------5------6-------------3---------------
G|--5----5------7--------5----5---3~----------
D|--3-7--5------7--------3-5--5---3~--(rest)--
A|--3----3--5---5--------3----3---5~----------
E|--------------------------------------------

Outro:
    F    F/A      C/Bb   Bb/D    F/C  C2  Bb/D    F
e|------------------------------------------------1~--
B|-----1-------------------------------3----------1~--
G|--2h3---5--------3---3--3-------5----5---3~-----4~--
D|--3-----3--------2h3-2--3-------3-7--5---3~-----3~--
A|-(3)----x--------1---1--5-------3----3---5~-----3~--
E|--1-----5---------------------------------------1~--

There you have it. It sounds just about perfect when I play with
the recording, but please post any corrections as necessary. Thanks! 

Comments about this tab

No comments/corrections found. Add your own

Complimentary Christian Ringtones
Dadamobile and CGR have teamed up to bring your favorite Christian artists right to your phone. Sign up today and get 10 complementary ringtones!
Tab Country
Did you know CGR has a sister site w/ country guitar tabs? Well we do! Its called Tab Country. It has a great archive with a lot of country tabs.
Rockin Tabs
Are you looking for a site that has rock guitar tabs? Then Rockintabs.com is the place for you. It is a budding site with many rock guitar tabs. Submit your tab today.
Tab Gallery
Tab Gallery has a compilation of christian, rock, and country tabs all in one place. Come visit us.