Guitar Tabs
song title    band name

Join Us Today!

Don't strum alone...
be a part of the largest online Christian music community. Browse thousands of guitar tabs and chat w/ musicians like yourself.


It's Free!

This tab has been rated a 2.50 out of 5 for accuracy. (2 votes)Sorry, but you must be logged in to rate this tab.
Click here to log-in, or you can click here to register.
(Registration is free)

All songs owned by corresponding publishing company. If you make copies of any song on this website, be sure to report your usage to CCLI.
Submitted by: nrpeugh

D|-------------------------------------------------------------|
A|-------------------------------------------------------------|
F|-------0-----0-----0----0------------------------------------|
C|------5-5---5-5---5-5--5-5-----------------------------------|
G|-----3-----3-----7----7--------------------------------------|
C|----3-----3-----7----7---------------------------------------|


Pre Chorus: Play the slide the first time only!
D|----------------------------------------------------------|
A|----------------------------------------------------------|
F|----------------------------------------------------------|
C|------333355553333333------777799997779999----------------|  (2x)
G|------333333333335555------777777777777777----------------|
C|-12--333333333333333------777777777777777----------------|
--
Chorus:

Guitar 1:
D|----------------------------------------------------------|
A|--------3-------------------------------------------------|
F|-10-12--2--5----------------------------------------------|
C|-8--10--0--3----------------------------------------------|
G|-8--10--0--3----------------------------------------------|
C|-8--10--0--3----------------------------------------------|

Guitar 2:
D|----------------------------------------------------------|
A|-------13---------13-------13-----------------------------|
F|-------------------------------12h14p12-------------------|
C|-12h15------12h15----12h15--------------------------------|
G|----------------------------------------------------------|
C|----------------------------------------------------------|

Guitar 1:
D|-------------------------------------------------------------|
A|-------------------------------------------------------------|
F|----0-----0-----0----0---------------------------------------|
C|---5-5---5-5---5-5--5-5--------------------------------------|
G|--3-----3-----7----7-----------------------------------------|
C|-3-----3-----7----7------------------------------------------|

Guitar Two: 
D|---------------------------------------------------------|
A|---------------------------------------------------------|
F|---------------------------------------------------------|
C|-3--7----------------------------------------------------|
G|-3--7----------------------------------------------------|
C|-3--7----------------------------------------------------|



Guitar 1:
D|----------------------------------------------------------|
A|---------------------6--6---------------------------------|
F|--3--3--3--3---5--5--7--7---------------------------------|
C|--3--3--3--3---5--5--7--7---------------------------------|
G|--1--1--1--1---3--3--5--5---------------------------------|
C|----------------------------------------------------------|



Then back to the prechorus:

D|----------------------------------------------------------|
A|----------------------------------------------------------|
F|----------------------------------------------------------|
C|------333355553333333------777799997779999----------------|  (2x)
G|------333333333335555------777777777777777----------------|
C|-12--333333333333333------777777777777777----------------|

Then end with the chorus:

Guitar 1:
D|----------------------------------------------------------|
A|--------3-------------------------------------------------|
F|-10-12--2--5----------------------------------------------|
C|-8--10--0--3----------------------------------------------|
G|-8--10--0--3----------------------------------------------|
C|-8--10--0--3----------------------------------------------|

Guitar 2:
D|----------------------------------------------------------|
A|-------13---------13-------13-----------------------------|
F|-------------------------------12h14p12-------------------|
C|-12h15------12h15----12h15--------------------------------|
G|----------------------------------------------------------|
C|----------------------------------------------------------|

Comments about this tab

forgivenwretch - 2008-05-09

This tab is a good bit off. The intro is more like this:

__________________________
--------------------------
--------------------------
-----0--------5-5---------
----5-5--------7----------
---3---------7------------
--3---------7-------------


and you do each riff once per sung line, not twice. where's the entire riff from 2:47 - 3:12? I might try to do an entirely more accurate tab of this if I get some time.

I'm not sure if it's perfect but the riff from 2:47-3:12 is something like:

___________________________________________________________________________
---------------------------------------------------------------------------
---------------------------------------------------------------------------
-------5-----5----------5-----5----------5-----5----------5----------------
-----3-----3-----3----3-----3-----3----3-----3-----3----3-----3-2----------
---1-----1-----1----1-----1-----1----5-----5-----5----5-----5-----5-3------
---------------------------------------------------------------------------


withfury91 - 2008-12-05

Try this intro


--------------------------
--------------------------
-----0---------0-------
----5-5-------5--5--------
---3---------7------------
--3---------7-------------


Add a comment/correction

Complimentary Christian Ringtones
Dadamobile and CGR have teamed up to bring your favorite Christian artists right to your phone. Sign up today and get 10 complementary ringtones!
Tab Country
Did you know CGR has a sister site w/ country guitar tabs? Well we do! Its called Tab Country. It has a great archive with a lot of country tabs.
Rockin Tabs
Are you looking for a site that has rock guitar tabs? Then Rockintabs.com is the place for you. It is a budding site with many rock guitar tabs. Submit your tab today.
Tab Gallery
Tab Gallery has a compilation of christian, rock, and country tabs all in one place. Come visit us.