Guitar Tabs
song title    band name

Join Us Today!

Don't strum alone...
be a part of the largest online Christian music community. Browse thousands of guitar tabs and chat w/ musicians like yourself.


It's Free!

This tab has not yet been rated for accuracy.Sorry, but you must be logged in to rate this tab.
Click here to log-in, or you can click here to register.
(Registration is free)

All songs owned by corresponding publishing company. If you make copies of any song on this website, be sure to report your usage to CCLI.
Submitted by: Cool_JX

Searching For A Saviour
Tabbed by Cool_JX   


I think there are three guitarists 
Tuning- Drop Db in Standard Eb (Db-Ab-Db-Gb-Bb-eb)
h= hold


Intro
Guitar 1
eb-------------|
Bb-------------|
Gb-------------|   keep going for the whole intro (muted)
Db--9--9--9----|
Ab--9--9--9----|
Db--9--9--9----|  

Guitar 2
eb--------------5------12-------5-----12-------|
Bb---------------------------------------------|
Gb-----------------4------11-----4--------11---|
Db---------------------------------------------| Keep going ‘till 
Ab---------------------------------------------| end of intro
Db---------------------------------------------|

Guitar 3
eb---------------------------------------|
Bb---------------------------------------|
Gb---------------------------------------| Keep going ‘til end of 
Db--------------9-9-9----9-9-9----9-9-9--| intro
Ab--------------9-9-9----9-9-9----9-9-9--|
Db--------------9-9-9----9-9-9----9-9-9--|

Guitar 2
eb---------------------------------------------|
Bb-----------------------------------------5b--|
Gb---------------------------------------------| Bend for a long 
Db---------------------------------------------| time
Ab---------------------------------------------|
Db---------------------------------------------|

All
eb----------------------------|
Bb----------------------------|
Gb----------------------------| Strum last note
Db--7-7--5-5--4-4------2-4-5--|
Ab--7-7--5-5--4-4------2-4-5--|
Db--7-7--5-5--4-4------2-4-5--|

Verse- All
eb---------------------------------------------------------------|
Bb---------------------------------------------------------------|
Gb---------------------------------------------------------------|
Db---0-0-0--5-5-5--7-4-4-4---2-4-5-----0-0-0--5-5-5--7-0-0-0-----|
Ab---0-0-0--5-5-5--7-4-4-4---2-4-5-----0-0-0--5-5-5--7-0-0-0-----|
Db---0-0-0--5-5-5--7-4-4-4---2-4-5-----0-0-0--5-5-5--7-0-0-0-----|



eb---------------------------|
Bb---------------------------|
Gb---------------------------|
Db---5-5-5--7-4-4-4---2-4-5--|
Ab---5-5-5--7-4-4-4---2-4-5--|
Db---5-5-5--7-4-4-4---2-4-5--|

Pre-Chorus
eb---------|
Bb---------|
Gb---------|
Db--2---5--|
Ab--2---5--|
Db--2---5--|

Chorus-(there are three guitarists for this part)
Guitar 1+3
eb--------------------------------------|
Bb--------------------------------------|
Gb--------------------------------------|   Strum this part
Db--9-9-9-9--5-5-5-5--0-0-0-0--7-7-7-7--|
Ab--9-9-9-9--5-5-5-5--0-0-0-0--7-7-7-7--|
Db--9-9-9-9--5-5-5-5--0-0-0-0--7-7-7-7--|

eb--------------------------------------|
Bb--------------------------------------|
Gb--------------------------------------|   Strum this part
Db--0-0-0-0--5-5-5-5--9-9-9-9--7-7-7-7--|
Ab--0-0-0-0--5-5-5-5--9-9-9-9--7-7-7-7--|
Db--0-0-0-0--5-5-5-5--9-9-9-9--7-7-7-7--|


Guitar 2
eb---------------------------------------------------------------|
Bb---------------------------------------------------------------|
Gb---------------------------------------------------------------|
Db-------------------------12--------------------12--------------|
Ab--5--7--9--2------5-4-5--12--7h----5--7--9--2--12--5--7--9--4--|
Db-------------------------12--------------------12--------------|

eb-------|
Bb---5b--|
Gb-------| bend this one for longer  
Db-------|                       note: -12-  is quite hard to hear
Ab-------|                             -12-  so you don’t have to 
Db-------|                             -12-  actually play it.


Verse-
same

Pre-Chorus-
same

Chorus-
same       (but without note bend)

Bridge- All
eb------------------------|
Bb------------------------|
Gb------------------------| x2
Db---5-4-4--9-7-7---2--5--|
Ab---5-4-4--9-7-7---2--5--|
Db---5-4-4--9-7-7---2--5--|

All
eb---------------------------------------------------------------|
Bb---------------------------------------------------------------|
Gb--6-7-7-6-7-7-9---9-11-11-9-11-11-12---11-12-12-11-12-12-14-9--|
Db--6-7-7-6-7-7-9---9-11-11-9-11-11-12---11-12-12-11-12-12-14-9--|
Ab--4-5-5-4-5-5-7---7-9--9--7-9--9--10---9--10-10-9--10-10-12-7--|
Db---------------------------------------------------------------|
(guitar 3 does this bit through the whole bridge/ chorus)

Chorus- guitar 1
eb--------------------------------------|
Bb--------------------------------------|
Gb--------------------------------------|   Strum this part
Db--9-9-9-9--5-5-5-5--0-0-0-0--7-7-7-7--|
Ab--9-9-9-9--5-5-5-5--0-0-0-0--7-7-7-7--|
Db--9-9-9-9--5-5-5-5--0-0-0-0--7-7-7-7--|

eb--------------------------------------|
Bb--------------------------------------|
Gb--------------------------------------|   Strum this part
Db--0-0-0-0--5-5-5-5--9-9-9-9--7-7-7-7--|
Ab--0-0-0-0--5-5-5-5--9-9-9-9--7-7-7-7--|
Db--0-0-0-0--5-5-5-5--9-9-9-9--7-7-7-7--|


Guitar 2
eb---------------------------------------------------------------|
Bb---------------------------------------------------------------|
Gb---------------------------------------------------------------|
Db-------------------------12--------------------12--------------|
Ab--5--7--9--2------5-4-5--12--7h----5--7--9--2--12--5--7--9--4--|
Db-------------------------12--------------------12--------------|

eb-------|
Bb---5b--|
Gb-------| bend this one for the longest
Db-------|                                  
Ab-------|                                  
Db-------|

Outro- All
eb-------------------------|
Bb-------------------------|
Gb-------------------------|
Db---5-4-4--9-7-7---2--5---| hold for a long time
Ab---5-4-4--9-7-7---2--5---|
Db---5-4-4--9-7-7---2--5---|

Comments about this tab

No comments/corrections found. Add your own

Complimentary Christian Ringtones
Dadamobile and CGR have teamed up to bring your favorite Christian artists right to your phone. Sign up today and get 10 complementary ringtones!
Tab Country
Did you know CGR has a sister site w/ country guitar tabs? Well we do! Its called Tab Country. It has a great archive with a lot of country tabs.
Rockin Tabs
Are you looking for a site that has rock guitar tabs? Then Rockintabs.com is the place for you. It is a budding site with many rock guitar tabs. Submit your tab today.
Tab Gallery
Tab Gallery has a compilation of christian, rock, and country tabs all in one place. Come visit us.