Guitar Tabs
song title    band name

Join Us Today!

Don't strum alone...
be a part of the largest online Christian music community. Browse thousands of guitar tabs and chat w/ musicians like yourself.


It's Free!

This tab has not yet been rated for accuracy.Sorry, but you must be logged in to rate this tab.
Click here to log-in, or you can click here to register.
(Registration is free)

All songs owned by corresponding publishing company. If you make copies of any song on this website, be sure to report your usage to CCLI.
Submitted by: EKCender429

Pretty easy song to play and its pretty accurate

Guitar 1  acoustic(D#-G#-C#-F#-A#-D#)
Guitar 2  electric(D#-G#-C#-F#-A#-D#)
Guitar 3  electric(D#-G#-C#-F#-A#-D#)

G  Em  B
3  x   2
0  0   4
0  0   4
0  2   4 
2  2   2        
3  0   x

Intro/Verse 1

Guitar 1
2------------------------------------------------------
3------------------------------------------------------
4--55555555--55555555--555-555-5555555555--------------repeat as many times
5--77777777--55555555--222-333-7777777777--------------    needed
6------------------------------00000-------------------

Chorus
Guitar 1
2-------------------------------------------------------------
3-------------------------------------------------------------
4-2s9--2s9--2s9---9-9-9-9-9-9----5s10-5s10-5s10--101010101010- X4
5-2s10-2s10-2s10--101010101010---7s12-7s12-7s12--121212121212-
6-------------------------------------------------------------

Repeat Intro/verse again then

(Nothing like me)
guitar 1
3------------------------------------------------
4---9---9---7---7---7--7--9---9--7----7---7--7---
5------------------------------------------------
6--8---8---8---8---8-8---5---5---5---5---5-5-----

1------------------------0---0----00000000----
2------------------------0---0----55555555----
4---9--9--7--7--7-7--9--9--7--7---------------
5---------------------------------------------
6--8--8--8--8--8-8--5--5--5--5----------------

Guitars 1 and 2 and 3 Then Do the CHORUS
Then
(The trees are green)
Guitar 2

1-22222---2222222--0000000000000000------
2-00000---3333333--0000000000000000------
3------------------2222222222222222------Repeat however many times the song
4----------------------------------------    does

Guitar 3
2----------------------------------------
3----------44444444---2222222222222222---Repeat however many times the song
4--22222---44444444---2222222222222222---    does
5--22222---22222222---0000000000000000---
6--00000---------------------------------

Then after that guitars 2 and 3

3-------------------------4~~~~~~----
4--5~~~~~~-----2~~~~~~----4~~~~~~----   ~~~~~~=let ring
5--5~~~~~~-----2~~~~~~----2~~~~~~----
6--3~~~~~~-----0~~~~~~---------------

Then guitar 1 starts up w/ these chords and plays them for the whole rest
                                                               of the song
G         Em         B
G         Em         B
G         Em         B
G         Em         B

Im not sure about the solo right now but i am working on it!!!

But in middle of the solo guitar 3 starts playing

3---------------------------------44444444444444--
4-55555555555---222222222222------44444444444444--
5-55555555555---222222222222------22222222222222--
6-33333333333---000000000000----------------------

Then its pretty much the synthesizer and guitar 1 still playing its chords
for the rest of the song    i'm pretty sure this is about 98% correct but if 
its not......o well


Comments about this tab

EKCender429 - 2007-12-05

here is an easier way to play chorus

1-------------------------------------------
2---0---0---0---000000-----------------------
3---0---0---0---000000-----5---5---5--55555-- these are the same notes, i jus
4-2---2--2---------------5-7-5-7-5-7--77777-- t think that sliding the notes
5-2---2--2---------------7---7---7----------- sounds better
6-0---0--0-----------------------------------


Add a comment/correction

Complimentary Christian Ringtones
Dadamobile and CGR have teamed up to bring your favorite Christian artists right to your phone. Sign up today and get 10 complementary ringtones!
Tab Country
Did you know CGR has a sister site w/ country guitar tabs? Well we do! Its called Tab Country. It has a great archive with a lot of country tabs.
Rockin Tabs
Are you looking for a site that has rock guitar tabs? Then Rockintabs.com is the place for you. It is a budding site with many rock guitar tabs. Submit your tab today.
Tab Gallery
Tab Gallery has a compilation of christian, rock, and country tabs all in one place. Come visit us.