Guitar Tabs
song title    band name

Join Us Today!

Don't strum alone...
be a part of the largest online Christian music community. Browse thousands of guitar tabs and chat w/ musicians like yourself.


It's Free!

This tab has not yet been rated for accuracy.Sorry, but you must be logged in to rate this tab.
Click here to log-in, or you can click here to register.
(Registration is free)

All songs owned by corresponding publishing company. If you make copies of any song on this website, be sure to report your usage to CCLI.
Submitted by: DiscipleRawks

Alright, finally got the solo! I'm the one that posted the other Purpose To 
Melody tab, but i didn't have the solo in it 'cause i hadn't figured it out
yet. But now i have, so here it is.  

Artist:Disciple
Album:Scars Remain
Song:Purpose To Melody 
Tuning:Drop C
                                      b=bend
                                      ~=let it ring

D-----------------------------------------------------------------------------
A----------10~-----15-13----13-15-18-17~--------------------------------------
F-----9-10--------------14-----------------14-1212-15-1212-14-1212-15-1212-14-
C--7--------------------------------------------------------------------------
G-----------------------------------------------------------------------------
C-----------------------------------------------------------------------------

D------------------------------------------------------------22-21b-----------
A------13----1315--1315171817151315~---17-19-20-19~---20-22--------22-20-19-17
F121415--1415----15-----------------------------------------------------------
C-----------------------------------------------------------------------------
G-----------------------------------------------------------------------------
C-----------------------------------------------------------------------------

And that's it. It sounds awesome once you can play the one part in the middle 
fast enough. Which i can't do yet :) But i'll get there.   And hey, let me 
know if I did a good job on the tab. 

Comments about this tab

No comments/corrections found. Add your own

Complimentary Christian Ringtones
Dadamobile and CGR have teamed up to bring your favorite Christian artists right to your phone. Sign up today and get 10 complementary ringtones!
Tab Country
Did you know CGR has a sister site w/ country guitar tabs? Well we do! Its called Tab Country. It has a great archive with a lot of country tabs.
Rockin Tabs
Are you looking for a site that has rock guitar tabs? Then Rockintabs.com is the place for you. It is a budding site with many rock guitar tabs. Submit your tab today.
Tab Gallery
Tab Gallery has a compilation of christian, rock, and country tabs all in one place. Come visit us.