Guitar Tabs
song title    band name

Join Us Today!

Don't strum alone...
be a part of the largest online Christian music community. Browse thousands of guitar tabs and chat w/ musicians like yourself.


It's Free!

This tab has been rated a 3.33 out of 5 for accuracy. (3 votes)Sorry, but you must be logged in to rate this tab.
Click here to log-in, or you can click here to register.
(Registration is free)

All songs owned by corresponding publishing company. If you make copies of any song on this website, be sure to report your usage to CCLI.
Submitted by: schecter777

Emery-The Party Song
Album-I’m Only A Man
Tabbed by: overflowme/schecter777
Email: strummer99@cox.net

Guitar 1 “distortion” (C#-G#-C#-F#-A#-D#)
Guitar 2 “distortion” (C#-G#-C#-F#-A#-D#)
Guitar 3 “clean” (C#-G#-C#-F#-A#-D#)
Guitar 4 “acoustic” (C#-G#-C#-F#-A#-D#)

Key:
/=slide up
\=slide down
~=let ring
x=mute
.=palm mute
p=pull-off
b=bend

Intro
Gtr. 3
[----------------------------------------------------]2x
[----------------------------------------------------]
[----------------------------------------------------]
[--/12-12-12-12-12-12-12-12-11-11-11-11-11-11-11-11--]
[--/-9--9--9--9--9--9--9--9--9--9--9--9--9--9--9--9--]
[--/-9--9--9--9--9--9--9--9--7--7--7--7--7--7--7--7--]

Then, Gtr. 1
[---------------------------------------------------]
[---------------------------------------------------]
[---------------------------------------------------]
[--12-12-12-12-12-12-12-12-11-11-11-11-11-11-11-11--]
[---9--9--9--9--9--9--9--9--9--9--9--9--9--9--9--9--]
[---9--9--9--9--9--9--9--9--7--7--7--7--7--7--7--7--]

[-------------------------------------------]
[--10-10-10-10-10-10-10-10------------------]
[---9--9--9--9--9--9--9--9-7-7-7-7-7-7-7-7--]
[---7--7--7--7--7--7--7--7-5-5-5-5-5-5-5-5--]
[---7--7--7--7--7--7--7--7-5-5-5-5-5-5-5-5--]
[---7--7--7--7--7--7--7--7-5-5-5-5-5-5-5-5--]

Verse 1
Gtr. 3
[---------------------------------------------------------------]
[---------------------------------------------------------------]
[---------------------------------------------------------------]
[--4-----------------------------0------------------------------]
[--4-4-4-4-4-4-4-4-4-4-4-4-4-4-4-0-0-0-0-0-0-0-0-0-0-0-0-0-0-0--]
[--4-4-4-4-4-4-4-4-4-4-4-4-4-4-4-0-0-0-0-0-0-0-0-0-0-0-0-0-0-0--]
     . . . . . . . . . . . . . .   . . . . . . . . . . . . . . 
[---------------------------------------/9----------------]
[---------------------------------------/7--0---0---0-----]
[-------------------------------------------------6-------]
[--9-------------0-------------4----4-4-------7-------7\--]
[--9-9-9-9-9-9-9-0-0-0-0-0-0-0-4--4-4-4-------------------]
[--9-9-9-9-9-9-9-0-0-0-0-0-0-0-4--4-4-4-------------------]
     . . . . . .   . . . . . .    .
Then, Gtr. 1
[---------------------------------------------------------------]
[---------------------------------------------------------------]
[---------------------------------------------------------------]
[--4-----------------------------0------------------------------]
[--4-4-4-4-4-4-4-4-4-4-4-4-4-4-4-0-0-0-0-0-0-0-0-0-0-0-0-0-0-0--]
[--4-4-4-4-4-4-4-4-4-4-4-4-4-4-4-0-0-0-0-0-0-0-0-0-0-0-0-0-0-0--]
     . . . . . . . . . . . . . .   . . . . . . . . . . . . . . 
[---------------------------------------------------------------]
[---------------------------------------------------------------]
[---------------------------------------------------------------]
[--9-------------0-------------4----7--7-4---4------------------]
[--9-9-9-9-9-9-9-0-0-0-0-0-0-0-4--4-7--7-4-4-4-4-4-4-4-4-4-4-4--]
[--9-9-9-9-9-9-9-0-0-0-0-0-0-0-4--4-7--7-4-4-4-4-4-4-4-4-4-4-4--]
     . . . . . .   . . . . . .    .        .   . . . . . . . .
Pre-Chorus
[-------------------------------------------------------------------]
[-------------------------------------------------------------------]
[-------------------------------------------------------------------]
[--0-0-0-0-0-0-0-0-9-9-9-9-9-9-9-9-0-0-0-0-0-0-0-0-9-9-9-9-9-9-9-9--]
[--0-0-0-0-0-0-0-0-7-7-7-7-7-7-7-7-0-0-0-0-0-0-0-0-7-7-7-7-7-7-7-7--]
[--0-0-0-0-0-0-0-0-7-7-7-7-7-7-7-7-0-0-0-0-0-0-0-0-7-7-7-7-7-7-7-7--]

Chorus
[------------------------------------------]
[------------------------------------------]
[--------------------------11-11-----------]
[--4-4-4-4-4-4-4-4-7-7-7-7-11-11-----------]
[--4-4-4-4-4-4-4-4-4-4-4-4--9--9-12p11p10--]
[--4-4-4-4-4-4-4-4-4-4-4-4-----------------]

[---------0--0-0--------0--0-0--------0--0-0----------]
[---------2--2-2--------2--2-2--------2--2-2----------]
[----------------------------------------------6\4/6--]
[--0--0-0--------0--0-0--------0--0-0--------0-x\x/x--]
[--0--0-0--------0--0-0--------0--0-0--------0-4\2/4--]
[--0--0-0--------0--0-0--------0--0-0--------0--------]


[------------------------------------------]
[------------------------------------------]
[--------------------------11-11-----------]
[--4-4-4-4-4-4-4-4-7-7-7-7-11-11-----------]
[--4-4-4-4-4-4-4-4-4-4-4-4--9--9-12p11p10--]
[--4-4-4-4-4-4-4-4-4-4-4-4-----------------]

[-----------------------------------------------------------------]
[-----------------------------------------------------------------]
[-------9\6-4-------9\6-4-------9\6-4--4-6\4/6--------------------]
[--0--0-x\x-x--0--0-x\x-x--0--0-x\x-x--x-x\x/x--4-----------4-4\--]
[--0--0-7\4-2--0--0-7\4-2--0--0-7\4-2--2-4\2/4--4-4-4-4-4-4-4-4\--]
[--0--0--------0--0--------0--0-----------------4-4-4-4-4-4-4-4\--]
                                                  . . . . . 
Verse 2
Gtr. 3
[------0~~-----0~~-----0~-----0~-----0~~--]
[--0-------0-------0------0------0--------]
[----6-------6-------7------6------6------]
[-----------------------------------------]
[-----------------------------------------]
[-----------------------------------------]

Then, Gtr. 1
[-------5-5-5-5-5-5-5------5-5-5-5-5-5-5--]
[-------x-x-x-x-x-x-x------x-x-x-x-x-x-x--]
[-------4-4-4-4-4-4-4------6-6-6-6p4-4-4--]
[--4--4---------------0--0----------------]
[--4--4---------------0--0----------------]
[--4--4---------------0--0----------------]

[-----------------------------------5-7-7-9-9/13-13-13--]
[-----------------------------------2-5-5-7-7/-9--9--9--]
[-------11-11-11------13-13-13--------------------------]
[--9--9--9--9--9-0--0--9--9--9-4--4---------------------]
[--9--9----------0--0----------4--4---------------------]
[--9--9----------0--0----------4--4---------------------]

(Pre-Chorus)

(Chorus)

Bridge
Gtr. 4
[------------------2-2-2-2-2-2-2-2-0-0-0-0-0-0-0-0-0-0-0-0-0-0-0-0--]2x
[--3-3-3-3-3-3-3-3-3-3-3-3-3-3-3-3-0-0-0-0-0-0-0-0-0-0-0-0-0-0-0-0--]
[--4-4-4-4-4-4-4-4-2-2-2-2-2-2-2-2-2-2-2-2-2-2-2-2-1-1-1-1-1-1-1-1--]
[--4-4-4-4-4-4-4-4-0-0-0-0-0-0-0-0-2-2-2-2-2-2-2-2-2-2-2-2-2-2-2-2--]
[--2-2-2-2-2-2-2-2-----------------0-0-0-0-0-0-0-0-2-2-2-2-2-2-2-2--]
[--------------------------------------------------2-2-2-2-2-2-2-2--]

Then, Gtr. 1
[----------]
[----------]
[----------]
[--0~~~~~--]
[--0~~~~~--]
[--0~~~~~--]

Gtr. 4
[--2-2-2-2-2-2-2-2-2-2-2-2-2-2-2-2--]
[--3-3-3-3-3-3-3-3-3-3-3-3-3-3-3-3--]
[--2-2-2-2-2-2-2-2-2-2-2-2-2-2-2-2--]
[--0-0-0-0-0-0-0-0-0-0-0-0-0-0-0-0--]
[-----------------------------------]
[-----------------------------------]

Then, Gtr. 1
[---------------------------------------------------------------]
[---------------------------------------------------------------]
[---------------------------------------------------------------]
[--4-----------------------------0------------------------------]
[--4-4-4-4-4-4-4-4-4-4-4-4-4-4-4-0-0-0-0-0-0-0-0-0-0-0-0-0-0-0--]
[--4-4-4-4-4-4-4-4-4-4-4-4-4-4-4-0-0-0-0-0-0-0-0-0-0-0-0-0-0-0--]
     . . . . . . . . . . . . . .   . . . . . . . . . . . . . . 
[-------------------------------------------------]
[-------------------------------------------------]
[-------------------------------------------------]
[--9-------------0-------------4----7--7-4-----4--]
[--9-9-9-9-9-9-9-0-0-0-0-0-0-0-4--4-7--7-4-4-4-4--]
[--9-9-9-9-9-9-9-0-0-0-0-0-0-0-4--4-7--7-4-4-4-4--]
     . . . . . .   . . . . . .    .        . . 
[-----------------------------------]
[-----------------------------------]
[-----------------------------------]
[--0-0-0-0-0-0-0-0-9-9-9-9-9-9-9-9--]
[--0-0-0-0-0-0-0-0-7-7-7-7-7-7-7-7--]
[--0-0-0-0-0-0-0-0-7-7-7-7-7-7-7-7--]

[-------------------------------------------------------]
[-------------------------------------------------------]
[-------------------------------------------------------]
[--0-0-0-0-0-0-0-0-9-9-9-9-9-9-9-9-9-9-9-9-9-9-x-x-x-x--]
[--0-0-0-0-0-0-0-0-7-7-7-7-7-7-7-7-7-7-7-7-7-7-x-x-x-x--]
[--0-0-0-0-0-0-0-0-7-7-7-7-7-7-7-7-7-7-7-7-7-7-x-x-x-x--]

(Chorus)

Outro
Gtr. 1
[-----------------------------------------------]
[--10-10-10-10-10-10-10-10-10b-10b-10b-10b-10\--]
[---7--7--7--7--7--7--7--7--7---7---7---7---7\--]
[-----------------------------------------------]
[-----------------------------------------------]
[-----------------------------------------------]

Gtr. 2
[------------------------------]
[------------------------------]
[------------------------------]
[--4-4-4-4-4-4-4-4-4-4-4-4-4\--]
[--4-4-4-4-4-4-4-4-4-4-4-4-4\--]
[--4-4-4-4-4-4-4-4-4-4-4-4-4\--]

Comments about this tab

EKCender429 - 2007-10-24

in verse 2 intead of

1---131313-------
2---9-9-99-------ist should be

1----141414-------------
2----121212-------------

i think


schecter777 - 2007-10-28

for that, i meant to put
[--14-14-14--]
[--10-10-10--]
[------------]

instead of
[--13-13-13--]
[---9--9--9--]
[------------]

i dont know why i put that.


EKCender429 - 2007-10-29

ya i knew something was wrong with that


schecter777 - 2007-12-07

yeah i put this tab on ultimate-guitar.com and its much more updated and accurate there. so ignore this one and to to the other one.


Mr. Q - 2008-12-14

This is a great song!


Add a comment/correction

Complimentary Christian Ringtones
Dadamobile and CGR have teamed up to bring your favorite Christian artists right to your phone. Sign up today and get 10 complementary ringtones!
Tab Country
Did you know CGR has a sister site w/ country guitar tabs? Well we do! Its called Tab Country. It has a great archive with a lot of country tabs.
Rockin Tabs
Are you looking for a site that has rock guitar tabs? Then Rockintabs.com is the place for you. It is a budding site with many rock guitar tabs. Submit your tab today.
Tab Gallery
Tab Gallery has a compilation of christian, rock, and country tabs all in one place. Come visit us.