Guitar Tabs
song title    band name

Join Us Today!

Don't strum alone...
be a part of the largest online Christian music community. Browse thousands of guitar tabs and chat w/ musicians like yourself.


It's Free!

This tab has been rated a 4.00 out of 5 for accuracy. (2 votes)Sorry, but you must be logged in to rate this tab.
Click here to log-in, or you can click here to register.
(Registration is free)

All songs owned by corresponding publishing company. If you make copies of any song on this website, be sure to report your usage to CCLI.
Submitted by: tmlfan123

Song: Wish You Well
Album: The Flame In All Of Us
Artist: Thousand Foot Krutch

Intro 
E-------------------3---------------------------------------
B---0--1-0------------------------0-----------0---1-0-------
G----0--------2-0-2---0-2-0---0-0---0---0-0-0---0-----------
D-2---------0----------------------------------------------- repeat
A---------------------------3---------3---------------------
E-----------------------------------------------------------

Verse 1(same as intro)
E-------------------3---------------------------------------
B---0--1-0------------------------0-----------0---1-0-------
G----0--------2-0-2---0-2-0---0-0---0---0-0-0---0-----------
D-2---------0----------------------------------------------- repeat
A---------------------------3----------3--------------------
E-----------------------------------------------------------

Chorus 1
E-------------------------------
B-------------------------------
G----0-----0----0-----0------0-
D--------4----2---0-2---0-4----   repeat
A--2---5-----3------------------
E-3-----------------------------

In the second chorus he adds an open-string D after each of the first three 
progressions

Post-Chorus
E-------------------------------------------
B-------0---------0---------0------0--------
G----0---0--0----0-0--0----0-0-------2------
D---------0-----2----2----2----2--0---------   back into verse
A--2--------------------3-------3------0----
E-3-----------0-----------------------------

Verse 2
E-------------------3---------------------------------------
B---0--1-0------------------------0-----------0---1-0-------
G----0--------2-0-2---0-2-0---0-0---0---0-0-0---0-----------
D-2---------0----------------------------------------------- repeat as needed
A---------------------------3----------3--------------------
E-----------------------------------------------------------

Then he goes into chords for the bridge and final chorus.  Sorry I don't have
those but I'm sure you'll be able to figure them out.  If it helps, the song is
in G major.  I'm not 100% convinced that I've got it right in a few parts, 
particularly the chorus, so if you can fix anything that'd be great. 

Comments about this tab

tmlfan123 - 2007-10-24

Hey guys I forgot to say that he plays it in a different position than I have listed here. I just like it in this position.


tmlfan123 - 2007-10-24

I just realized I forgot the end. After the final verse I have listed, it goes back into the chorus x2 and then the post-chorus until the chords start. Sorry about that.


Add a comment/correction

Complimentary Christian Ringtones
Dadamobile and CGR have teamed up to bring your favorite Christian artists right to your phone. Sign up today and get 10 complementary ringtones!
Tab Country
Did you know CGR has a sister site w/ country guitar tabs? Well we do! Its called Tab Country. It has a great archive with a lot of country tabs.
Rockin Tabs
Are you looking for a site that has rock guitar tabs? Then Rockintabs.com is the place for you. It is a budding site with many rock guitar tabs. Submit your tab today.
Tab Gallery
Tab Gallery has a compilation of christian, rock, and country tabs all in one place. Come visit us.