Guitar Tabs
song title    band name

Join Us Today!

Don't strum alone...
be a part of the largest online Christian music community. Browse thousands of guitar tabs and chat w/ musicians like yourself.


It's Free!

This tab has not yet been rated for accuracy.Sorry, but you must be logged in to rate this tab.
Click here to log-in, or you can click here to register.
(Registration is free)

All songs owned by corresponding publishing company. If you make copies of any song on this website, be sure to report your usage to CCLI.
Submitted by: EKCender429

Emery
I'M ONly A MAn                             Tuning: C#-G#-C#-F#-A#-D#
aFter the devil beats his wife


(You wanna swim)


2----------------------------
3--8---------5---5555555-----
4--6---------3---5555555-----
5--6---------3---3333333-----
6--6---------3---------------

Verse 1:

C    G     G#   D#  


C    B    C   A#

(THE waters too deep)

F    D#  D      G


Chorus 1:

3--------------5555----------10101010---88888888----
4--6666--3333--5555---6666---10101010---88888888----
5--6666--3333--3333---6666---8-8-8-8----66666666----
6--6666--3333---------6666--------------------------

3--------------5555----------------------
4--6666--3333--5555---6666666-8-55555555-
5--6666--3333--3333---6666666-8-55555555-
6--6666--3333---------6666666-8-55555555-

Basically same thing as intro then...

Verse 2:

3-------------------------------
4-------------8------------------
5--10--5---6--6--10--9--10--8-----  Figure out the rythm
6--10--5---6-----10--9--10--8-----
    .  .   .  .  .   .   .   .


3------------------------------------
4-----3--------1--------0--------5---
5--33-3-X8--11-1X8---00-0X8---55-5-X8
6--33-3-----11-1-----00-0-----55-5---
   ..       ..       ..       ..

Chorus

Then

1----------------------------------------
2--13-13-13-13--15-15-15-15--16161616----     I figured out the rest of that
3----------------------------------------     part but i'm too lazy to tab
4----------------------------------------         it out


(Ive decided long ago)

3-55-555-----5------------------------
4-55-555-X2--5-33-33---5---5----------
5-33-333-----3-33-33---5---5---X2-----
6--------------33-33---5---5----------

(OVer again)
2-----------------------------------------------16p15--
3-------------------------loudly----------------------
4---softly---------------10-10-13-10-13---------------Don;t know rest of solo
5-3--6-3-6-x8------------10-10-13-10-13--X4-----------   until...
6------------------------10-10-13-10-13---------------


(3:51)end of the solo

1-151515-161616--171717-181818-1919191919--2020202020-slide down---
2-151515-161616- 171717-181818-1919191919--2020202020-------------

then you go back to the over and over again part



then thats it needs a little work on the chorus but o well      

Comments about this tab

EKCender429 - 2007-10-18

well what do you think?


EKCender429 - 2007-10-22

in verse one... the really high notes played on the acoustic guitar are the same chords just like 3 octaves high


EKCender429 - 2007-10-30

would someone tell me what they think of this tab??


Add a comment/correction

Complimentary Christian Ringtones
Dadamobile and CGR have teamed up to bring your favorite Christian artists right to your phone. Sign up today and get 10 complementary ringtones!
Tab Country
Did you know CGR has a sister site w/ country guitar tabs? Well we do! Its called Tab Country. It has a great archive with a lot of country tabs.
Rockin Tabs
Are you looking for a site that has rock guitar tabs? Then Rockintabs.com is the place for you. It is a budding site with many rock guitar tabs. Submit your tab today.
Tab Gallery
Tab Gallery has a compilation of christian, rock, and country tabs all in one place. Come visit us.