Guitar Tabs
song title    band name

Join Us Today!

Don't strum alone...
be a part of the largest online Christian music community. Browse thousands of guitar tabs and chat w/ musicians like yourself.


It's Free!

This tab has not yet been rated for accuracy.Sorry, but you must be logged in to rate this tab.
Click here to log-in, or you can click here to register.
(Registration is free)

All songs owned by corresponding publishing company. If you make copies of any song on this website, be sure to report your usage to CCLI.
                        PLEIADES   BY   KING'S X

                        from Gretchen Goes To Nebraska
                  copyright 1989 Jetydosa Music

Transcribed by Brian King

Notes:  I have made this transcription for one guitar, although there are two
parts after the singing stops.  You can get by with one I have included, which
is sort of a combination of the two parts. Watch out for the Sign, and the Coda
markings.  The time signature for PLEIADES is 4/4, noted at the beginning of
each staff.  NOTE:  TUNE THE 6TH STRING DOWN TO D!  Have fun. My Internet
address is: gt6851a@prism.gatech.edu.  Call me if you need help.  Does anyone

Legend:

X  string muted     h  hammeron        p  pulloff
/  slide up         \  slide down      R  rest
r  release bend     ^  1/4 step bend   t  tie note over
b  bend to note in ( )                    into next measure
`( )  whammy bar drop number of steps in ( ), then release.
+--------+
|    //  | 
| 2 // 2 | repeat previous measures - the number tells you
|  //    | how many of the previous measures to repeat
| //     |
+--------+

  PLEIADES


    intro and verse
e| |-----------------+-----------------+------------------+
B|4|-----3---------3-|-------3---------|    //   (repeat  |
G|-|-------2-----0---|-----0-------0---| 2 // 2  previous |
D|4|---0-------0-----|---2-------0-----|  //     2 meas.  |
A| |-----------------|-3-------1-------| //      5 times) |
D| |-0-------2-------+---------------1-+------------------+



e| |---------------------+-------------------+--------+
B|4|---------------------|-------------------|    //  |
G|-|---------------------|-------------------| 2 // 2 |
D|4|---------------------|-------------------|  //    |
A| |-0-2--0-2-3--0-3-3/5-|-3-3-0--3/5--5-3-0-| //     |
D| |-0-2--0-2-3--0-3-3/5-+-3-3-0--3/5--5-3-0-+--------+


e| |----------------+------------------+---------------------+
B|4|-----3--------3-|    //   (repeat  |-------1-----------3-|
G|-|---0--------2---| 1 // 1  previous |-----0---0-------0---|
D|4|----------0-----|  //     measure  |---------------------|
A| |----------------| //      3 times) |---3-----------5-----|
D| |-2------3-------+------------------+-3---------3/5-------+



e| |------------------+---------------------+----------------------+
B|4|    //   (repeat  |---------------------|------------------15/-|
G|-| 1 // 1  previous |---------------------|------------------14/-|
D|4|  //     measure  |---------------------|----------------------|
A| | //      3 times) |-0-2--0-2-3--0-3-3/5-|-3-3-0--3/5-5-3-0-----|
D| |------------------+-0-2--0-2-3--0-3-3/5-+-3-3-0--3/5-5-3-0-----+


                                              * Sign
e| |---------------------+------------------+------------------------|
B|4|---------------------|------------------|------------------------|
G|-|---------------------|------------------|------------------------|
D|4|---------------------|------------------|------------------------|
A| |-0-2--0-2-3--0-3-3/5-|-3-3-0--3/5-5-3-0-|-2/3\2-0-2--2-2-3-3-0-0-|
D| |-0-2--0-2-3--0-3-3/5-+-3-3-0--3/5-5-3-0-+-2/3\2-0-2--2-2-3-3-0-0-+


e| |---------------------+------------------------+
B|4|---------------------|------------------------|
G|-|---------------------|------------------------|
D|4|---------------------|------------------------|
A| |-2/3\2-0-2--2-2-3-3--|-5/6\5-0-5--5-5-6-6-3-3-|
D| |-2/3\2-0-2--2-2-3-3--+-5/6\5-0-5--5-5-6-6-3-3-+


e| |------------------+------------------------+--------------------+
B|4|------------------|------------------------|--------------------|
G|-|------------------|------------------------|--------------------|
D|4|------------------|------------------------|--------------------|
A| |-5/6\5-0-5--5-6-6-|-2/3\2-0-2--2-2-3-3-0-0-|-2/3\2-0-2--2-2-3-3-|
D| |-5/6\5-0-5--5-6-6-+-2/3\2-0-2--2-2-3-3-0-0-+-2/3\2-0-2--2-2-3-3-+


 To Coda *
e| |------------------------+-------------------------+--------+
B|4|------------------------|-------------------------|-----3t-|
G|-|------------------------|-------------------------|-----2t-|
D|4|------------------------|-------------------------|-----0t-|
A| |-5/6\5-0-5--5-5-6-6-3-3-|-5/6\5-0-5--/8-7-5-4-3-2-|-1-0-0t-|
D| |-5/6\5-0-5--5-5-6-6-3-3-+-5/6\5-0-5--/8-7-5-4-3-2-+-1-0-0t-+


e| |-----+----+------------------+-
B|4|-(3)-|-3t-|-(3)--------------|-
G|-|-(2)-|-2t-|-(2)------0-----0-|-
D|4|-(0)-|-0t-|-(0)----2-----0---|-
A| |-(0)-|-0t-|-(0)--3-----2-----|-
D| |-(0)-+-0t-+-(0)--------------+-


e| |----------+-----------+-------------0---+--------+
B|4|-------3--|-3---------|------3----3---3-|--------|
G|-|----2-----|---2-------|----2---2--------|--------|
D|4|-0--0-----|------0----|-----------------|--------|
A| |----------|-----------|-----------------|--------|
D| |----------+--------0--+-3---------------+-3--3-3-+



e| |-------------+------+--------------------+--------+
B|4|-------------|------|--------------------|--------|
G|-|---2-1-------|-0----|-----2----0---------|-2--0-0-|
D|4|-------2-----|-0----|-0---0--------------|-0------|
A| |---------2---|------|--------3---2-0-----|-0------|
D| |-2---------5-+----3-+---0------------3-0-+-0------+


e| |---------------+--------------+---------------0---+
B|4|---------------|-----3----3---|-----3-------3---3-|
G|-|-0h2-0h2--2--0-|-----2--------|---2-------2-------|
D|4|-0---0---------|-4-0----------|---------0---------|
A| |---------------|--------------|-------------------|
D| |---------------+--------0---2-+-3-----3-----------+


e| |--------------------+------------+-----+---------------+
B|4|-----3-------3------|------------|-----|-3-------------|
G|-|-2p0-0-0h2---2------|---2-1------|-0---|-2---0---------|
D|4|-----------0--------|---2-2------|-0---|-0-------------|
A| |----------------3-3-|-2-2-2--0---|---3-|-0-3---2-0-----|
D| |----------------3-3-+-2---2----5-+-5-3-+-0---------3-0-+


e| |-------------+-----------------+-----------------+
B|4|----3--------|-------3---------|-------3---3-----|
G|-|-2--2--0-0-0-|-0h2---2-0-0-0-0-|-0-----2---2-----|
D|4|-0-----0-0-0-|-0---0-0-0-0-0-0-|---4-0-0---0-----|
A| |-0-----------|-----------------|-------0---------|
D| |-0-----------+-----------------+-------0-0---0-2-+


e| |-------------0---+---------------------+-----------+
B|4|---3---3-3-3---3-|-----3---------3-----|-----------|
G|-|---2---2-2-2-----|-2p0-0h2-------2-----|---2-1-0---|
D|4|---0-------------|---------0-----------|---2-2-0---|
A| |-3---------------|-----------------3-3-|-2-2-2-----|
D| |-3---3-----------+-----------3-3---3-3-+-2-2-2---5-+


e| |------+-------------------+-----------------+
B|4|-3----|-3---3-------------|-3-3-3-3-3-3-3-3-|
G|-|-0----|-2---2---0---------|-2-2-2-2-2-0-2-0-|
D|4|-0----|-0---0-------------|-0-0-----0-0-0-0-|
A| |----3-|-0-----3---2-0-----|-0---------------|
D| |-5--3-+-0-0-----------3-0-+-0---------------+

e| |------------------+-------------------+-------------------+
B|4|-3-3-3----3-3-3---|-3-3-3---3-3-3-----|-------------------|
G|-|-2-0-2----2-0-2---|-2-0-2---2-0-2-----|-----2---------2---|
D|4|-0-0-0----0-0-0---|-0-0-0---0-0-0-----|-----0---------0---|
A| |------------------|---------------0-2-|-3-3---0-3-3-3---0-|
D| |--------0-------0-+-------0-------0-2-+-3-3---0-3-3-3---0-+

                             D.S. al Coda *
e| |-----------------------+---------+-----+
B|4|-----------------------|---------|-3---|
G|-|-------2---------2-----|---2-1---|-0---|
D|4|-------0---------0-----|---2-2---|-0---|
A| |-3-3-3---0-3-3-3---3-3-|-2-2-2-0-|---3-|
D| |-3-3-3---0-3-3-3---3-3-+-2-2-2-0-+-5-3-+

    Coda
e| |---+--------------------------+
B|4|-3-|--------------------------|
G|-|-2-|-----------0------------0-| end!
D|4|-0-|-2h4p2p0------2h4p2p0-----|
A| |-0-|---------3------------3---|
D| |-0-+--------------------------+


Lyrics: Pleiades

When I look up at the stars at night
What could I find beyond the light?
A hundred million worlds that we ignore.

Who can restrain Pleiades,
Or know the laws of heavenlies?
How many times have we been wrong before?

Far off in the field I see a castle.
Today the people gather at the pole.
He tried to tell us all the world was spherical.
They burned his body, but not his soul.


brian king

Comments about this tab

No comments/corrections found. Add your own

Complimentary Christian Ringtones
Dadamobile and CGR have teamed up to bring your favorite Christian artists right to your phone. Sign up today and get 10 complementary ringtones!
Tab Country
Did you know CGR has a sister site w/ country guitar tabs? Well we do! Its called Tab Country. It has a great archive with a lot of country tabs.
Rockin Tabs
Are you looking for a site that has rock guitar tabs? Then Rockintabs.com is the place for you. It is a budding site with many rock guitar tabs. Submit your tab today.
Tab Gallery
Tab Gallery has a compilation of christian, rock, and country tabs all in one place. Come visit us.