Guitar Tabs
song title    band name

Join Us Today!

Don't strum alone...
be a part of the largest online Christian music community. Browse thousands of guitar tabs and chat w/ musicians like yourself.


It's Free!

This tab has not yet been rated for accuracy.Sorry, but you must be logged in to rate this tab.
Click here to log-in, or you can click here to register.
(Registration is free)

All songs owned by corresponding publishing company. If you make copies of any song on this website, be sure to report your usage to CCLI.
Submitted by: rhp92

Song: Devastation and Reform 
Artist: Relient K 
Album: Five Score and Seven Years Ago 
Tuning: Standard 
(original) Tabber: aceguitarock 
Found and put on this site by:Rhp92



*****NOTE: i DID NOT make this tab, i found it on axe tabs and thought it
was REALLY GOOD and this site doesnt have the full version, so i just posted it
on here, the guy that deserves credit is aceguitarock. heres the link to his tab
http://www.911tabs.com/link/?4203418

anyway, hope you like it, i had alot of fun with it

parts of the song are split into two guitars. 



Key: 
x = Natural Harmonics (Fret muting for you newbies) 
* = Palm Mute 

Intro: 
Gtr. 1 
|----------------------------------------------------------------------| 
|-------------54-------------------------------------------------------| 
|----4-6--4-6----6----4-6----4-6--46-----------------------------------| 
|------------------66-----66-----6--444444444444-666-------------------| x2 
|-44----44-------------------------------------------4444444444444444--| 
|----------------------------------------------------------------------| 

Gtr. 2 (On Second Time) 
|---------------------------------------------------------------------| 
|---------------------------------------------------------------------| 
|-6666666666666666-----------------------------------6666666666666666-| 
|-6666666666666666-6666666666666666-4444444444444444-6666666666666666-| 
|-4444444444444444-6666666666666666-4444444444444444-4444444444444444-| 
|------------------4444444444444444-2222222222222222------------------| 

Verse 1: (Slight Distortion) 
|--4--4--4--444--4--4--4--444--2--2--2--222--4--------------| 
|--5--5--5--555--5--5--5--555--4--4--4--444--5--------------| 
|--6--6--6--666--6--6--6--666--4--4--4--444--6--------------| 
|--6--6--6--666--6--6--6--666--4--4--4--444--6--------------| 
|--4--4--4--444--4--4--4--444--2--2--2--222--4--------------| 
|-----------------------------------------------------------| 

|-------11------------------4------------| 
|-----5------------------------------5-4-| 
|---6------------6-----------------------| 
|-7-----------------------6--------6-----| 
|-------------4---------6--------4-------| 
|---------------------4------------------| 

Pre-Chorus: 
|-------------------xxxxxxxx-------------------------------------| 
|-------------------xxxxxxxx-------------------------------------| 
|-2-22--------6-66--xxxxxxxx--2222222222222222-44444444-55555555-| 
|-2-22--------6-66--xxxxxxxx--2222222222222222-44444444-55555555-| 
|-0-00--------4-44--xxxxxxxx--0000000000000000-22222222-33333333-| 
|-------------------xxxxxxxx-------------------------------------| 

Chorus: 
Gtr. 1: 
|----------------------------------------------------------------| 
|----------------------------------------------------------------| 
|-66666666-8888-9999-99999999911111111-13131313-1313131313131313-| 
|-xxxxxxxx-xxxx-xxxx-xxxxxxxxx-x-x-x-x--x-x-x-x--x-x-x-x-x-x-x-x-| 
|-44444444-6666-7777-777777777-9-9-9-9-11111111-1111111111111111-| 
|----------------------------------------------------------------| 

|-------------------------------------| 
|-------------------------------------| 
|1111111111111111-88888888-9999-8888--| 
|-x-x-x-x-x-x-x-x-xxxxxxxx-xxxx-xxxx--| x2 
|-9-9-9-9-9-9-9-9-66666666-7777-6666--| 
|-------------------------------------| 

Gtr. 2: 
|----------------------------------------------------------------------| 
|----------------------------------------------------------------------| 
|-2222222222222222------------------6666666666666666-4444444444444444--| 
|-2222222222222222-2222222222222222-6666666666666666-4444444444444444--| x2 
|-0000000000000000-2222222222222222-4444444444444444-2222222222222222--| 
|------------------0000000000000000------------------------------------| 

Interlude: 
Gtr. 1 
|---------------------------------------------------------------------| 
|-------------54------------------------------------------------------| 
|----4-6--4-6----6----4-6----4-6--46----------------------------------| 
|------------------66-----66-----6--444444444444-666------------------| 
|-44----44-------------------------------------------4444444444444444-| 
|---------------------------------------------------------------------| 

Gtr. 2 
|---------------------------------------------------------------------| 
|---------------------------------------------------------------------| 
|----------------------------------------------------6666666666666666-| 
|----------------------------------------------------6666666666666666-| 
|----------------------------------------------------4444444444444444-| 
|---------------------------------------------------------------------| 

Verse 2: 
|---------------------------------------------------------------------| 
|---------------------------------------------------------------------| 
|-----------------------------------4444444444444444------------------| 
|-7777777777777777----------------------------------------------------| 
|------------------4444444444444444------------------4444444444444444-| 
|---------------------------------------------------------------------| 

|------------------------------------------------------| 
|------------------------------------------------------| 
|---------------------------------------------6----6---| 
|-----------------------------------6----6----6----6---| 
|-----------------------------------6----6----4----4---| 
|-----------------------------------4----4-------------| 

Pre-Chorus 2: 
|------------------xxxxxxxx------------------------------------| 
|------------------xxxxxxxx------------------------------------| 
|-2-2/13------6-66-xxxxxxxx-2222222222222222-44444444-55555555-| 
|-2-2--x------6-66-xxxxxxxx-2222222222222222-44444444-55555555-| 
|-0-0/11------4-44-xxxxxxxx-0000000000000000-22222222-33333333-| 
|------------------xxxxxxxx------------------------------------| 

Chorus 2: 
Gtr. 1: 
|----------------------------------------------------------------| 
|----------------------------------------------------------------| 
|-66666666-8888-9999-99999999911111111-13131313-1313131313131313-| 
|-xxxxxxxx-xxxx-xxxx-xxxxxxxxx-x-x-x-x--x-x-x-x--x-x-x-x-x-x-x-x-| 
|-44444444-6666-7777-777777777-9-9-9-9-11111111-1111111111111111-| 
|----------------------------------------------------------------| 

|-------------------------------------| 
|-------------------------------------| 
|1111111111111111-88888888-9999-8888--| 
|-x-x-x-x-x-x-x-x-xxxxxxxx-xxxx-xxxx--| x2 
|-9-9-9-9-9-9-9-9-66666666-7777-6666--| 
|-------------------------------------| 

Gtr. 2: 
|----------------------------------------------------------------------| 
|----------------------------------------------------------------------| 
|-2222222222222222------------------6666666666666666-4444444444444444--| 
|-2222222222222222-2222222222222222-6666666666666666-4444444444444444--| x2 
|-0000000000000000-2222222222222222-4444444444444444-2222222222222222--| 
|------------------0000000000000000------------------------------------| 

Intermission: No Guitar 
Interlude: 
|--------------------------------------------------------------------| 
|--------------------------------------------------------------------| 
|---------------------------------------------------------------6----| 
|-2222222222222222-4444444444444444-44444444-66666666-77777777--6--6-| 
|-0000000000000000-2222222222222222-44444444-66666666-77777777--4--6-| 
|-----------------------------------22222222-44444444-55555555-----4-| 
PM**************** **************** 


Chorus 3: 
Gtr. 1: 
|----------------------------------------------------------------| 
|----------------------------------------------------------------| 
|-66666666-8888-9999-99999999911111111-13131313-1313131313131313-| 
|-xxxxxxxx-xxxx-xxxx-xxxxxxxxx-x-x-x-x--x-x-x-x--x-x-x-x-x-x-x-x-| 
|-44444444-6666-7777-777777777-9-9-9-9-11111111-1111111111111111-| 
|----------------------------------------------------------------| 

|-------------------------------------| 
|-------------------------------------| 
|1111111111111111-88888888-9999-8888--| 
|-x-x-x-x-x-x-x-x-xxxxxxxx-xxxx-xxxx--| x2 
|-9-9-9-9-9-9-9-9-66666666-7777-6666--| 
|-------------------------------------| 

Gtr. 2: 
|----------------------------------------------------------------------| 
|----------------------------------------------------------------------| 
|-----------------------------------6666666666666666-4444444444444444--| 
|-7777777777777777-2222222222222222-6666666666666666-4444444444444444--| x2 
|-7777777777777777-2222222222222222-4444444444444444-2222222222222222--| 
|-5555555555555555-0000000000000000------------------------------------| 

Outro: 
Gtr. 1 
|-------------------------------------------------------------------------| 
|-------------54----------------------------------------------------------| 
|----4-6--4-6----6----4-6----4-6--46-----------------66-6-6-66-6-6-6------| 
|------------------66-----66-----6--444444444444-666-66-6-6-66-6-6-6------| 
|-44----44-------------------------------------------44-4-4-44-4-4-4------| 
|-------------------------------------------------------------------------| 

Gtr. 2 
|-------------------------------------------------------------------------| 
|-------------------------------------------------------------------------| 
|-6666666666666666-----------------------------------66-6-6-66-6-6-6------| 
|-6666666666666666-6666666666666666-4444444444444444-66-6-6-66-6-6-6------| 
|-4444444444444444-6666666666666666-4444444444444444-44-4-4-44-4-4-4------| 
|------------------4444444444444444-2222222222222222----------------------| 

Comments about this tab

No comments/corrections found. Add your own

Complimentary Christian Ringtones
Dadamobile and CGR have teamed up to bring your favorite Christian artists right to your phone. Sign up today and get 10 complementary ringtones!
Tab Country
Did you know CGR has a sister site w/ country guitar tabs? Well we do! Its called Tab Country. It has a great archive with a lot of country tabs.
Rockin Tabs
Are you looking for a site that has rock guitar tabs? Then Rockintabs.com is the place for you. It is a budding site with many rock guitar tabs. Submit your tab today.
Tab Gallery
Tab Gallery has a compilation of christian, rock, and country tabs all in one place. Come visit us.