Guitar Tabs
song title    band name

Join Us Today!

Don't strum alone...
be a part of the largest online Christian music community. Browse thousands of guitar tabs and chat w/ musicians like yourself.


It's Free!

This tab has not yet been rated for accuracy.Sorry, but you must be logged in to rate this tab.
Click here to log-in, or you can click here to register.
(Registration is free)

All songs owned by corresponding publishing company. If you make copies of any song on this website, be sure to report your usage to CCLI.
Submitted by: Condorian

Bend The Bracket
By Chevelle
copyright 2004 sony BMG
Tabbed by Conder et al.

after listening to this song for a while a friend of mine realized that this
song is in drop B because if you listen to the intro the high pitched string
that has been confusing people is a low G# when tuned down to drop B. so we 
began to tab and post it on this site because nobody seemed to realize it was 
tuned this low

Tuning B-F#-B-E-G#-C#

Intro these are the cords listen to the cd for rythm
B---4-------------------------------|
F#--4-------------------------------|
B---4--0--0-----0----0------0-------|
E---6---6---6------6---6------6-----|
G#------------0----------0------0---|
C#----------------------------------|

repeat thst phrase a couple of times

Verse
again these are cords, listen for struming
B--4--7--0--|
F#-4--7--0--|
B--4--7--0--|
E--6--9--2--|
G#-------3--|
C#-------0--|

repeat like 4 times i think

Chorus 
x=dont play.
B--5--2--0--2--5--2--0--|
F#-X--2--0--2--X--2--0--|
B--0--2--0--2--0--2--0--|
E--0--4--3--4--0--4--3--|
G#-3-----2-----3-----2--|
C#-3-----0-----3-----0--|

interlude is same as intro
verse is always the same
chorus is the same 

Bridge
B--4-----------------------------------2--0--X--6--|
F#-4-----------------------------------2--0--5--6--|
B--4--0---0------0----0-------0--------2--0--7--6--|
E--6----6---6-------6---6--------6-----4--3--7-----|
G#------------0------------0--------0-----2--------|
C#----------------------------------------0--------|

verse is the same
chorus is the same but repeated i think
outro is the same as intro

thats it have fun.

Comments about this tab

No comments/corrections found. Add your own

Complimentary Christian Ringtones
Dadamobile and CGR have teamed up to bring your favorite Christian artists right to your phone. Sign up today and get 10 complementary ringtones!
Tab Country
Did you know CGR has a sister site w/ country guitar tabs? Well we do! Its called Tab Country. It has a great archive with a lot of country tabs.
Rockin Tabs
Are you looking for a site that has rock guitar tabs? Then Rockintabs.com is the place for you. It is a budding site with many rock guitar tabs. Submit your tab today.
Tab Gallery
Tab Gallery has a compilation of christian, rock, and country tabs all in one place. Come visit us.