Guitar Tabs
song title    band name

Join Us Today!

Don't strum alone...
be a part of the largest online Christian music community. Browse thousands of guitar tabs and chat w/ musicians like yourself.


It's Free!

This tab has been rated a 2.00 out of 5 for accuracy. (2 votes)Sorry, but you must be logged in to rate this tab.
Click here to log-in, or you can click here to register.
(Registration is free)

All songs owned by corresponding publishing company. If you make copies of any song on this website, be sure to report your usage to CCLI.
Submitted by: DiscipleRawks

Artist:Disciple
Album: Scars Remain
Song:  Purpose To Melody
                           b=bend
                         ...=palm mute
                          /\=slide
Ok,this song took a while and im still not sure about the Gtr 2 parts behind 
the lead in the intro but here it is.
Drop C Tuning

Intro:
Gtr 1
D-----------------------------------------------------------------
A-----------------------------------------------------------------
F------11-11-11-11--------10-10-10-10--------12-12-12-12----------
C-10b\9--9--9--9--9--10b\9--9--9--9--9--10b\9--9--9--9--9---------
G-----------------------------------------------------------------
C-----------------------------------------------------------------
Then:
Gtr 2
D-----------------------------------------------------------------
A-----------------------------------------------------------------
F-----------------------------------------------------------------
C-0-0-0--10-10-10-10--0-0-0--8-8-8-8--0---------------------------
G-0-0-0--10-10-10-10--0-0-0--8-8-8-8--0---------------------------
C-0-0-0--10-10-10-10--0-0-0--8-8-8-8--0---------------------------
  .....               .....           .

Then Gtr 1 repeats its intro and Gtr2 plays this in the backround:

D-----------------------------------------------------------------
A-----------------------------------------------------------------
F-----------------------------------------------------------------
C-4\2-2-2-2-2-2-2-2--3\1-1-1-1-1-1-1-1--4\2-2-2-2-2-2-2-2---------
G-4\2-2-2-2-2-2-2-2--3\1-1-1-1-1-1-1-1--4\2-2-2-2-2-2-2-2---------
C-4\2-2-2-2-2-2-2-2--3\1-1-1-1-1-1-1-1--4\2-2-2-2-2-2-2-2---------

Then Gtr 2 does its first riff again.

Note: In the Gtr 1 intro the bend is very small,less than a semitone.
You bend on 10 slide into 9 and then return the bend before you hit the nine.
Its kinda confusing but if you listen to the song you can probably get it.

Verse:
Gtr 2
D------------------------
A------------------------
F------------------------
C-2--2-22---2-2--0-0-0---
G-2--2-22---2-2--0-0-0--- 4x
C-2--2-22---2-2--0-0-0---
            ...  .....
On the 4th time don't mute the last three open notes.

Pre-Chorus:
Gtr1
D---------------------------------------------------------------
A---------------------------------------------------------------
F------11-11-11-11--------10-10-10-10--------12-12-12-12--------
C-10b\9--9--9--9--9--10b\9--9--9--9--9--10b\9--9--9--9--9-------

Then:
Gtr 2
D--------------------------
A--------------------------
F--------------------------
C-0-0-0--10---0---0-0-8----
A-0-0-0--10---0---0-0-8----
C-0-0-0--10---0---0-0-8----
  .....       .   ...

Then Gtr 1 does its part again but end
durring "this part this role in which we live" on:
D------------
A------12----
F------------
C-10b\9--9---

Chorus:
Gtr 2
D---------------------------------------------------------------
A----------------------10b--------------------------------------
F----------------------10b--------------------------------------
C-2--2-22-----0-8-0-7-8-----2--2-22--6-7-9-7-6-7---8-8-7-7-7---- 2x
G-2--2-22-----0-8-0-7-8-----2--2-22--6-7-9-7-6-7---8-8-7-7-7----
C-2--2-22-----0-8-0-7-8-----2--2-22--6-7-9-7-6-7---8-8-7-7-7----

Post-Chorus:
Gtr 1
D-----------------------------------------------------------
A-----------------------------------------------------------
F----4-5-4---10-12-11--------------------------4-5-4---10-12-11----------
C-7--------------------5-7-2----------------7--------------------5-------
G------------------------------------------------------------------------
C------------------------------------------------------------------------

Gtr 2 This is played DURRING the above riff.
D------------------------------------------------------------------------
A------------------------------------------------------------------------
F------------------------------------------------------------------------
C-2----5-4------7--5-----7-2--0-0-0-0-0-0---2----5-4------7--5---7-------
G-2----5-4------7--5-----7-2--0-0-0-0-0-0---2----5-4------7--5---7-------
C-2----5-4------7--5-----7-2--0-0-0-0-0-0---2----5-4------7--5---7-------
                              ...........

Verse
Pre-Chorus
Chorus
Post-Chorus

Bridge:(Just after the second post-chorus)
Gtr 2
D------------------------------------------------------------------
A------------------------------------------------------------------
F------------------------------------------------------------------
C-2--2-2-2-2---2--2-2-2-2-10-10-10-10---2--2-2-2-2---2--2-2-2-2-12-
G-2--2-2-2-2---2--2-2-2-2-10-10-10-10---2--2-2-2-2---2--2-2-2-2-12-
C-2--2-2-2-2---2--2-2-2-2-10-10-10-10---2--2-2-2-2---2--2-2-2-2-12-
     .......      .......                  .......      .......

D------------------------------------------------------------------
A------------------------------------------------------------------
F------------------------------------------------------------------
C-2--2-2-2-2---2--2-2-2-2-10-10-10-10---2--2-2-2-2---2--2-2-2-2----
G-2--2-2-2-2---2--2-2-2-2-10-10-10-10---2--2-2-2-2---2--2-2-2-2----
C-2--2-2-2-2---2--2-2-2-2-10-10-10-10---2--2-2-2-2---2--2-2-2-2----
     .......      .......                  .......      .......

I haven't figured out the whole solo yet but i'll post it when i do.


After the solo do the post chorus again.

Outro:
D------------------------------------
A------------------------------------
F------------------------------------
C-0-2--0-2--0-2--0-2--10-10-10-10---- 3x
G-0-2--0-2--0-2--0-2--10-10-10-10----
C-0-2--0-2--0-2--0-2--10-10-10-10----
Then end on:
D------------------------------------
A------------------------------------
F------------------------------------
C-0-2--0-2--0-2--0-2--0-0-0-0-0-0----
G-0-2--0-2--0-2--0-2--0-0-0-0-0-0----
c-0-2--0-2--0-2--0-2--0-0-0-0-0-0----
                      ...........

And thats it.

Comments about this tab

DiscipleRawks - 2007-10-23

sorry, i have a small correction
in the end of the chorus instead of:
C-8-8-7-7-7--
G-8-8-7-7-7--
C-8-8-7-7-7--

it should be:
C-9-9-7-7-9-
G-9-9-7-7-9-
C-9-9-7-7-9-

and on the last palm mutes it should be the 2nd fret on the top
3 strings instead of open on the top 3 strings.


Hey, guys i'm dying for someone to comment and rate i want to know
if i got close or if im way far off. Please comment!!!


RawkerBear - 2008-06-01

Dude, I don't know what's up with guitar 1's intro. It doesn't sound right. I tried it, and then listened to the CD. Sorry I had to post a negative comment.


crazymoose - 2008-12-18

No offence, but very little of this song is right. I don't know if you're playing a harmony or what but a lot of is is definitely not what the song is playing.


Add a comment/correction

Complimentary Christian Ringtones
Dadamobile and CGR have teamed up to bring your favorite Christian artists right to your phone. Sign up today and get 10 complementary ringtones!
Tab Country
Did you know CGR has a sister site w/ country guitar tabs? Well we do! Its called Tab Country. It has a great archive with a lot of country tabs.
Rockin Tabs
Are you looking for a site that has rock guitar tabs? Then Rockintabs.com is the place for you. It is a budding site with many rock guitar tabs. Submit your tab today.
Tab Gallery
Tab Gallery has a compilation of christian, rock, and country tabs all in one place. Come visit us.