Guitar Tabs
song title    band name

Join Us Today!

Don't strum alone...
be a part of the largest online Christian music community. Browse thousands of guitar tabs and chat w/ musicians like yourself.


It's Free!

This tab has not yet been rated for accuracy.Sorry, but you must be logged in to rate this tab.
Click here to log-in, or you can click here to register.
(Registration is free)

All songs owned by corresponding publishing company. If you make copies of any song on this website, be sure to report your usage to CCLI.
Submitted by: XanthanGum!

Song:The Story 
Artist: MxPx
Label:SideOneDummy Records
Year:2005

Quick Note: this one is in drop D tuning

Intro
D----HARMONIC AT 17TH FRET
A-------------------------
D-------------------------

D--------------------
A------------6-6-7-7-
D-0-0-0-7-7-7--------


G-------------5-5-7-7-10-
D-0-0-0-7-7-7-5-5-7-7-10-LET RING
A-0-0-0-7-7-7-3-3-5-5-8--
D-0-0-0-7-7-7------------

VERSE 1
B-3-
G-2-
D-0-LET RING 
A-0-
D-0-

PRECHORUS
GUITAR 1
B-3--11--8--6
G-2--10--7--5
D-0--8---5--3
A-0--8---5--3
D-0--8---5--3

GUITAR 2
B----------------
G-------------2--
D-0-3-2-0-3-5---3 LISTEN TO THE SONG TO FIGURE OUT TIMING
A----------------
D----------------

CHORUS
B-3-11-8-3---------------
G-2-10-7-2---------------
D-0-8--5-0--------------- X2
A-0-8--5-0-----------0---
D-0-8--5-0-----0-3-5---3-

POST CHORUS IS SAME AS CHORUS RIFF

BRIDGE
GUITAR 1
B-3--6--3--6--11-13-
G-2--5--2--5--10-12-
D-0--3--0--3--8--10-
A-0--3--0--3--8--10-
D-0--3--0--3--8--10-
GUITAR 2
B-------------------------------
G---15-14-12-10-12-9-10-17-15-14
D-12----------------------------

B--------------------------------
G---15-14-12-10-12-9-10--17-19-21
D-12-----------------------------

BACK TO INTRO PART 2 AND CHORUS TO END

THIS IS MY FIRST POSTED TAB SO PLEASE GIVE ME SOME FEEDBACK.....MXPX STYLE=D

Comments about this tab

No comments/corrections found. Add your own

Complimentary Christian Ringtones
Dadamobile and CGR have teamed up to bring your favorite Christian artists right to your phone. Sign up today and get 10 complementary ringtones!
Tab Country
Did you know CGR has a sister site w/ country guitar tabs? Well we do! Its called Tab Country. It has a great archive with a lot of country tabs.
Rockin Tabs
Are you looking for a site that has rock guitar tabs? Then Rockintabs.com is the place for you. It is a budding site with many rock guitar tabs. Submit your tab today.
Tab Gallery
Tab Gallery has a compilation of christian, rock, and country tabs all in one place. Come visit us.