Guitar Tabs
song title    band name

Join Us Today!

Don't strum alone...
be a part of the largest online Christian music community. Browse thousands of guitar tabs and chat w/ musicians like yourself.


It's Free!

This tab has been rated a 5.00 out of 5 for accuracy. (1 vote)Sorry, but you must be logged in to rate this tab.
Click here to log-in, or you can click here to register.
(Registration is free)

All songs owned by corresponding publishing company. If you make copies of any song on this website, be sure to report your usage to CCLI.
Submitted by: nbfan

David Crowder Band
Revolutionary Love
Illuminate 
2003 Sparrow Records

Chord Transposition/Tab by nbfan

Guitar I (electric lead) EADGBE
Guitar II (electric rhythm) EADGBE
Guitar III (acoustic) EADGBE


No capo


Intro Riff (Guitar I):
e---------------------------------------------
b---------------------------------------------
g--10p8-----------------------10p8------------
d-------11p10----------------------11p10------
a-------------8p6~--6-6-8/10-------------8p6--
e---------------------------------------------


Intro (Guitar II):
G#5

Intro, Verse 1 (Guitar III):
G# barre chord, lightly picking

Pre-Chorus (Guitar III):
Fm C# G#
Bb C# Fm C#

Chorus (all guitars):
G# Fm C# x2

Post-chorus (Guitar I):
e---------------------------------------------
b---------------------------------------------
g--10p8-----------------------10p8------------
d-------11p10----------------------11p10------
a-------------8p6~--6-6-8/10-------------8p6--
e---------------------------------------------

Post-chorus (Guitar II and III)
G#5

Verse 2 (Guitar I):
e-----------------------------
b-----------------------------
g--x-x-8-x-x-8-x-x-\6/8\6/8~~-
d--x-x-6-x-x-6-x-x-\4/6\4/6~~-
a-----------------------------
e----------------------------- repeat throughout verse

Pre-Chorus (Guitar III):
Fm C# G#
Bb C# Fm C#

Chorus (all guitars):
G# Fm C# x2

Bridge (all guitars):
F5 C#
F5 C#
F5 D# C#

Final Chorus:
G# Fm C# 

Comments about this tab

No comments/corrections found. Add your own

Complimentary Christian Ringtones
Dadamobile and CGR have teamed up to bring your favorite Christian artists right to your phone. Sign up today and get 10 complementary ringtones!
Tab Country
Did you know CGR has a sister site w/ country guitar tabs? Well we do! Its called Tab Country. It has a great archive with a lot of country tabs.
Rockin Tabs
Are you looking for a site that has rock guitar tabs? Then Rockintabs.com is the place for you. It is a budding site with many rock guitar tabs. Submit your tab today.
Tab Gallery
Tab Gallery has a compilation of christian, rock, and country tabs all in one place. Come visit us.