Guitar Tabs
song title    band name

Join Us Today!

Don't strum alone...
be a part of the largest online Christian music community. Browse thousands of guitar tabs and chat w/ musicians like yourself.


It's Free!

This tab has not yet been rated for accuracy.Sorry, but you must be logged in to rate this tab.
Click here to log-in, or you can click here to register.
(Registration is free)

All songs owned by corresponding publishing company. If you make copies of any song on this website, be sure to report your usage to CCLI.
Submitted by: Condorian

Breach Birth
by Chevelle
copyright 2004 by sony bmg services

tuning drop B (B F# B E G# C#) 

Intro (i think the beginning of the song is some major distortion created 
by the bass guitar) 

this is not played during the whole time the bass plays, you can hear when 
it comes in by ear
all "11"'s are 11's not 2 1's there are no 1's in this tab. i dont list some
of the amount of times a cord needs to be played but i think its easy to hear
it.

B---11-9-11-12--11-9-11-12--11-9-12--11-|
F#--11-9-11-12--11-9-11-12--11-9-12--11-|
B---11-9-11-12--11-9-11-12--11-9-12--11-|  this is played twice
E---------------------------------------|
G#--------------------------------------|
C#--------------------------------------|

Verse play these cords, the rythm is easy
    Clean h=hammer on
B--6-0h3-2-4-6-0h3-2-4--| 
F#-6-0h3-2-4-6-0h3-2-4--| 
B--6-0h3-2-4-6-0h3-2-4--| 
E-----------------------| 
G#----------------------|
C#----------------------| 

distorted
                      ** ** **   ** ** **   ** ** **=palm mute
B---6-0-2-4-6-0-2-4-4-22-00-22-4-22-00-22-4-22-00-22-4--|
F#--6-0-2-4-6-0-2-4-4-22-00-22-4-22-00-22-4-22-00-22-4--|
B---6-0-2-4-6-0-2-4-4-22-00-22-4-22-00-22-4-22-00-22-4--|
E-------------------------------------------------------|
G#------------------------------------------------------|
C#------------------------------------------------------|

Chorus
they like to play the 7 and 7 a lot so just listen for the riff 
or i would have to type out like 30.
B--7--9--11-9-11-12--11-9-11-12--11-9-11-12--111111999-|
F#-7--9--11-9-11-12--11-9-11-12--11-9-11-12--111111999-|
B--7--9--11-9-11-12--11-9-11-12--11-9-11-12--111111999-|
E------------------------------------------------------|
G#-----------------------------------------------------|
C#-----------------------------------------------------|

B--7--9--11-9-11-12--11-9-11-12--11-9-11-12--11111111111-|
F#-7--9--11-9-11-12--11-9-11-12--11-9-11-12--11111111111-|
B--7--9--11-9-11-12--11-9-11-12--11-9-11-12--11111111111-|
E--------------------------------------------------------|
G#-------------------------------------------------------|
C#-------------------------------------------------------|

repeat verse and chorus
x=dont play

Bridge
B-------------|
F#-7-9---7-9--|
B--x-x---x-x--|
E--9-11--9-11-|
G#------------|
C#------------|

chorus again 

outro is the same as the verse and thats it

Comments about this tab

No comments/corrections found. Add your own

Complimentary Christian Ringtones
Dadamobile and CGR have teamed up to bring your favorite Christian artists right to your phone. Sign up today and get 10 complementary ringtones!
Tab Country
Did you know CGR has a sister site w/ country guitar tabs? Well we do! Its called Tab Country. It has a great archive with a lot of country tabs.
Rockin Tabs
Are you looking for a site that has rock guitar tabs? Then Rockintabs.com is the place for you. It is a budding site with many rock guitar tabs. Submit your tab today.
Tab Gallery
Tab Gallery has a compilation of christian, rock, and country tabs all in one place. Come visit us.