Guitar Tabs
song title    band name

Join Us Today!

Don't strum alone...
be a part of the largest online Christian music community. Browse thousands of guitar tabs and chat w/ musicians like yourself.


It's Free!

This tab has not yet been rated for accuracy.Sorry, but you must be logged in to rate this tab.
Click here to log-in, or you can click here to register.
(Registration is free)

All songs owned by corresponding publishing company. If you make copies of any song on this website, be sure to report your usage to CCLI.
Submitted by: jcka

Well, i am not a pro, but this sounds close to what i hear in the song, i dont
mid if you correct it though... i am not too sure about the intro, but this is
easier than the other tabs. 


She Walked Away
Performed by BarlowGirl
Composed by BarlowGirl

Intro

e -----3r0------------3-3------3-3
B --------------1---1-----1-1-0---
G -0b2-----2----------------------     
D -----------3-------------------- *2
A --------------------------------
E --------------------------------

The timing isn't well written, but it's very easy to find out by ear.
Verses

e -----0-1-----0-3---------0-1---3-------
B ---1---1---1-----3-----1---1---3---3---
G -2---------------4---2-------------4---
D ---------------------------------------
A ---------------------------------------
E ---------------------------------------

e -----0-1-----0-3-----5----------------
B ---1---1---1-----3---6--------1---3---
G -2---------------4---7------0---0-----
D----------------------7----3-----------  You do this as many times as you
A ---------------------5----------------  need... no more than 2, actually.
E----------------------5----------------

The 5-6-7-7-5-5 chord, is a Dm ,you can do it the normal way, but I prefer 
doing an Am transposed to the 5th fret(kind of what you do with the normal 
F chord but i don't know what it's called)

I think there are chords for the chorus in the other tabs here or in other
easy-to-find pages

Please comment so I can know how did I do... or at least rate it. Take in mind
this is an easy version for the intro, you can do some bending or that kind
of stuff if you want to.

Jcka (BarlowGirl's #1 Guatemalan fan!!)

Comments about this tab

No comments/corrections found. Add your own

Complimentary Christian Ringtones
Dadamobile and CGR have teamed up to bring your favorite Christian artists right to your phone. Sign up today and get 10 complementary ringtones!
Tab Country
Did you know CGR has a sister site w/ country guitar tabs? Well we do! Its called Tab Country. It has a great archive with a lot of country tabs.
Rockin Tabs
Are you looking for a site that has rock guitar tabs? Then Rockintabs.com is the place for you. It is a budding site with many rock guitar tabs. Submit your tab today.
Tab Gallery
Tab Gallery has a compilation of christian, rock, and country tabs all in one place. Come visit us.