Guitar Tabs
song title    band name

Join Us Today!

Don't strum alone...
be a part of the largest online Christian music community. Browse thousands of guitar tabs and chat w/ musicians like yourself.


It's Free!

This tab has not yet been rated for accuracy.Sorry, but you must be logged in to rate this tab.
Click here to log-in, or you can click here to register.
(Registration is free)

All songs owned by corresponding publishing company. If you make copies of any song on this website, be sure to report your usage to CCLI.
Submitted by: Condorian

Bend the Bracket 
by Chevelle
copyright 2004 by sony

this song is ridiculous partially because it is in drop B
mega thanks to my friend who helped a lot with the tabbing of this song

anything in ()'s means optional so if you think it goes, then use it
and of i dont list a string dont play it e.g. the first cord doesnt have a C# string unless you can find one i wouldn't use it

Tuning drop B. B-F#-B-E-G#-C#

B---4--------------------------------------------|
F#--4--------------------------------------------|
B---4----0----0--------0-----0-----0-----0-------|
E---6------6-----6--------6-----6-----------6----|
G#-(7)--------------0-----------------0--------0-|
C#-----------------------------------------------|

Repeat 

Verse is always the same with some ()'s add ins i think

B---4---7----0---|
F#--4---7----0---|
B---4---7----0---|
E---6---9----2---|
G#-(7)-(10)--3---|
C#----------(2)--|

Chorus
X means mute or do not play

B---5---2---0---5---2---0---2--|
F#--X---2---0---X---2---0---2--|
B---0---2---0---0---2---0---2--|
E---0---4---2---0---4---2---4--|
G#--3--(5)--3---3--(5)--3--(5)-|
C#--3------(2)--3------(2)-----|

interlude is the same as the intro

Verse 2 is same as verse 1

Bridge is really unique i guess and its great, repeat this 4 times

B----4----------------------------------------------2---0---X---6---|
F#---4----------------------------------------------2---0---5---6---|
B----4--0-----0--------0-----0-----0-----0----------2---0---7---6---|
E----6-----6-----6--------6-----6-----------6-------4---2---7-------|
G#--(7)-------------0-----------------0--------0---(5)--3-----------|
C#-----------------------------------------------------(2)----------|

outro is the same as the intro 

i think you can figure out how the song goes but here it is if you are lazy or havent listened to it often

intro
verse
chorus
interlude
verse
chorus
bridge
verse
chorus (2 i think)
outro

coments questions ratings are greatly appreichated and i dont think i spelled that right

Comments about this tab

No comments/corrections found. Add your own

Complimentary Christian Ringtones
Dadamobile and CGR have teamed up to bring your favorite Christian artists right to your phone. Sign up today and get 10 complementary ringtones!
Tab Country
Did you know CGR has a sister site w/ country guitar tabs? Well we do! Its called Tab Country. It has a great archive with a lot of country tabs.
Rockin Tabs
Are you looking for a site that has rock guitar tabs? Then Rockintabs.com is the place for you. It is a budding site with many rock guitar tabs. Submit your tab today.
Tab Gallery
Tab Gallery has a compilation of christian, rock, and country tabs all in one place. Come visit us.