Guitar Tabs
song title    band name

Join Us Today!

Don't strum alone...
be a part of the largest online Christian music community. Browse thousands of guitar tabs and chat w/ musicians like yourself.


It's Free!

This tab has not yet been rated for accuracy.Sorry, but you must be logged in to rate this tab.
Click here to log-in, or you can click here to register.
(Registration is free)

All songs owned by corresponding publishing company. If you make copies of any song on this website, be sure to report your usage to CCLI.
Fathers
by King's X
Album: Ear Candy
(c)1996 N-TRA CASH MUSIC/ASCAP(admin. by MARK-CAIN Music USA/ASCAP)
Submitted by: Cody Pitre, cpitre@intop.net
More Tab at: http://www.intop.net/~cpitre/index.html
----------------------------------------------------------

Intro:(use up & down strokes)
 
   C#no3         F#/A#         Bno3                   /G#
e--------------|-------------|-------------|-------------|
b--------------|-------------|-------------|-------------|
g--6-6-6-6-6-6-|-3-3-3-3-3-3-|-4-4-4-4-4-4-|-4-4-4-4-4---|Repeat
d--6-6-6-6-6-6-|-4-4-4-4-4-4-|-4-4-4-4-4-4-|-4-4-4-4-4---|
A--4-4-4-4-4-4-|-1-1-1-1-1-1-|-2-2-2-2-2-2-|-2-2-2-2-2---|
E--------------|-------------|-------------|-----------4-|


Verse 1:

   C#no3     F#/A#         Bno3   /G#
e--------|--------|-------------|----|
b--------|--------|-------------|----|
g------6-|------3-|-----------4-|----|
d----6---|----4---|---------4---|----|
A--4-----|--1-----|-------2-----|----|
E--------|--------|-------------|--4-|
          My brother's on crack
          My sister's a wreck
          Our mother... she tries
          Our fathers are lies

Chorus:(not actual chord names)

   E/G#                     E/F#
e---------------|--------------------|
b-------------0-|------------------0-|
g------4--------|--------------4-----|
d--------2------|----------------2---|
A---------------|--------------------|
E--4------------|-----------2--------|
  Everyone of us loves everyone of us

   E/G#                     A/C#  A   A/C#  A
e---------------|-----------------------------|
b-------------0-|-----------------------------|
g------4--------|-------------2-----2----2----|
d--------2------|------------2-2---2-2--2-2---|
A---------------|-----------4-----0----4----0-|
E--4------------|-----------------------------|
  Everyone of us loves everyone 

Verse 2:(same as verse 1)
My brother sells cars
Another one's gay
More brothers are gone
My sister... she stays

(same as before)
Everyone of us loves everyone of us
Everyone of us loves everyone 

Riff
   C#no3
e--------------|-----------|
b--------------|-----------|
g--6-----------|---------6-|
d--6--4~-4p3-3-|--3--3---6-|
A--4-----------|-6--4----4-|
E--------------|-------4---|

Solo:
   G#
e-------------------|---------------------|
b-------------------|---------------------|Play
g--8-8-10p8-6-6-8p6-|-5-5h6-5---3~--3h5-3-| (3x)
d--6-6--6---6-6-6---|-6-6---6-------------|
A-------------------|---------------------|
E-------------------|---------------------|

Repeat chorus

G#no3 C#no3

Repeat verse 1(chords only)

C#no3     F#/A#        B   
      Our mother... she tries
      Our fathers...

Comments about this tab

No comments/corrections found. Add your own

Complimentary Christian Ringtones
Dadamobile and CGR have teamed up to bring your favorite Christian artists right to your phone. Sign up today and get 10 complementary ringtones!
Tab Country
Did you know CGR has a sister site w/ country guitar tabs? Well we do! Its called Tab Country. It has a great archive with a lot of country tabs.
Rockin Tabs
Are you looking for a site that has rock guitar tabs? Then Rockintabs.com is the place for you. It is a budding site with many rock guitar tabs. Submit your tab today.
Tab Gallery
Tab Gallery has a compilation of christian, rock, and country tabs all in one place. Come visit us.