Guitar Tabs
song title    band name

Join Us Today!

Don't strum alone...
be a part of the largest online Christian music community. Browse thousands of guitar tabs and chat w/ musicians like yourself.


It's Free!

This tab has not yet been rated for accuracy.Sorry, but you must be logged in to rate this tab.
Click here to log-in, or you can click here to register.
(Registration is free)

All songs owned by corresponding publishing company. If you make copies of any song on this website, be sure to report your usage to CCLI.
Submitted by: DarthDapor

Krystal Meyers - Collide
Dying for a Heart
Essential Records

The other tab (well technically it was just chords) didn't really seem right to
me. especially the tuning... ... it could be the same but I'm skeptical... 
...It left out a lot of stuff and I think this works much better...

Tuning Drop D (DADGBE)
..... = PM
b = bend    
\ = slide down on the fret
intro:

E-|---------------------------------------|
B-|---------------------------------------|
G-|-------6-7------6-7------6-7-----------|
D-|--4-4--6-7-2-2--6-7-0-0--6-7-8-8-8-8---|
A-|--4-4--4-5-2-2--4-5-0-0--4-5-8-8-8-8---|
D-|--4-4------2-2------0-0------8-8-8-8---| x2

Verse:
1st guitar:
E-|-----|
B-|-----|
G-|-----|
D-|----6|
A-|---4-|
D-|--4--| x15 (Listen closely it's very indistinct)

2nd guitar:

E-|-----------------------|
B-|-----------------------|
G-|--6-6-6-6-6-6-6-6------|
D-|--6-6-6-6-6-6-6-6--7---|
A-|--4-4-4-4-4-4-4-4----4-|
D-|-----------------------| x2 (VERY indistinct, but it's still there...)
     ............... 


Pre-Chorus:

E-|--------------------------|
B-|--------------------------|
G-|--------------------------|
D-|--4--4--4--4--4--4--4--4--|
A-|--4--4--4--4--4--4--4--4--|
D-|--4--4--4--4--4--4--4--4--|

And then twice the timing (same note) looks like:

E-|------|
B-|------|
G-|------|
D-|--4-4-|
A-|--4-4-|
D-|--4-4-| x10 (Thats 20 strums if I counted right, very fast)

Then:

E-|----------|
B-|----------|
G-|----------|
D-|--X-X-X-X-|
A-|--X-X-X-X-|
D-|--X-X-X-X-| (Fifth fret)


Chorus:

(same as intro, except for few parts. I'll post it anyways)

1st guitar:
E-|---------------------------------------|
B-|---------------------------------------|
G-|-------6-7------6-7------6-7-----------|
D-|--4-4--6-7-2-2--6-7-0-0--6-7-8-8-8-8---|
A-|--4-4--4-5-2-2--4-5-0-0--4-5-8-8-8-8---|
D-|--4-4------2-2------0-0------8-8-8-8---| x2

second guitar:

Krystal Meyers - Collide
Essential Records

The other tab (well technically it was just chords) didn't really seem right to
me. especially the tuning... ... it could be the same but I'm skeptical... 
...I think this works much better...

Tuning Drop D (DADGBE)
..... = PM
b = bend    
\ = slide down on the fret
intro:

E-|---------------------------------------|
B-|---------------------------------------|
G-|-------6-7------6-7------6-7-----------|
D-|--4-4--6-7-2-2--6-7-0-0--6-7-8-8-8-8---|
A-|--4-4--4-5-2-2--4-5-0-0--4-5-8-8-8-8---|
D-|--4-4------2-2------0-0------8-8-8-8---| x2

Verse:
1st guitar:
E-|-----|
B-|-----|
G-|-----|
D-|----6|
A-|---4-|
D-|--4--| x15 (Listen closely it's very indistinct)

2nd guitar:

E-|-----------------------|
B-|-----------------------|
G-|--6-6-6-6-6-6-6-6------|
D-|--6-6-6-6-6-6-6-6--7---|
A-|--4-4-4-4-4-4-4-4----4-|
D-|-----------------------| x2 (VERY indistinct, but it's still there...)
     ............... 


Pre-Chorus:

E-|--------------------------|
B-|--------------------------|
G-|--------------------------|
D-|--4--4--4--4--4--4--4--4--|
A-|--4--4--4--4--4--4--4--4--|
D-|--4--4--4--4--4--4--4--4--|

And then twice the timing (same note) looks like:

E-|------|
B-|------|
G-|------|
D-|--4-4-|
A-|--4-4-|
D-|--4-4-| x10 (Thats 20 strums if I counted right, very fast)

Then:

E-|----------|
B-|----------|
G-|----------|
D-|--X-X-X-X-|
A-|--X-X-X-X-|
D-|--X-X-X-X-| (Fifth fret)


Chorus:

(same as intro, except for one part. I'll post it anyways)

E-|---------------------------------------|
B-|---------------------------------------|
G-|-------6-7------6-7------6-7-----------|
D-|--4-4--6-7-2-2--6-7-0-0--6-7-8-8-8-8---|
A-|--4-4--4-5-2-2--4-5-0-0--4-5-8-8-8-8---|
D-|--4-4------2-2------0-0------8-8-8-8---| x2

then (the different part):

1st guitar:
E-|------|
B-|------|
G-|------|
D-|--4-4-|
A-|--4-4-|
D-|--4-4-| x8

2nd guitar:
(fits the timing of the lyrics and is very hard to hear)

E-|--------------4b-2-|
B-|------1-3---2------|
G-|--2-4-----4--------|
D-|-------------------|
A-|-------------------|
D-|-------------------|

2nd verse:
1st guitar is the same
2nd guitar is different:

E-|------------------------------------------|
B-|------------------------------------------|
G-|-----6----6----6----7--6----6----6--------|
D-|----6-6--6-6--6-6--6--6-6--6-6--6---11b\6-|
A-|---4----4----4----4--4----4----5----------|
D-|------------------------------------------| x2 
(minus the 11b\6 the second time)

(Pre-chorus)
(Chorus)
both the same
Bridge:

Chorus ends on:

E-|-------------|
B-|-------------|
G-|-------------|
D-|--4-4-4-4-4=-|
A-|--4-4-4-4-4=-|
D-|--4-4-4-4-4=-| (double picked strum up and down)
(vocals then repeat that once once)

then:

1st guitar:
(same as in pre-chorus)

2nd guitar (I think it might have an effect on it, not sure):

E-|---------------------------------|
B-|---------------------------------|
G-|---------------------------------|
D-|--4-6-7-9-6-8-9-11-8-10-11-13-10-|
A-|---------------------------------|
D-|---------------------------------|

(Chorus) repeat twice

ending:

E-|------------------------------------------|
B-|--------------------------8-8-8-8-8-8-8-8-|
G-|--6-6-8-9-----8-9-----8-9-----------------|
D-|----------9-9-----7-7---------------------|
A-|------------------------------------------|
D-|------------------------------------------|

then:

1st guitar:
E-|------|
B-|------|
G-|------|
D-|--4-4-|
A-|--4-4-|
D-|--4-4-| x8

2nd guitar:
(fits the timing of the lyrics and is very hard to hear)

E-|--------------4b-2-|
B-|------1-3---2------|
G-|--2-4-----4--------|
D-|-------------------|
A-|-------------------|
D-|-------------------|

2nd verse:
1st guitar is the same
2nd guitar is different:

E-|------------------------------------------|
B-|------------------------------------------|
G-|-----6----6----6----7--6----6----6--------|
D-|----6-6--6-6--6-6--6--6-6--6-6--6---11b\6-|
A-|---4----4----4----4--4----4----5----------|
D-|------------------------------------------| x2 
(minus the 11b\6 the second time)

(Pre-chorus)
(Chorus)
both the same
Bridge:

Chorus ends on:

E-|-------------|
B-|-------------|
G-|-------------|
D-|--4-4-4-4-4=-|
A-|--4-4-4-4-4=-|
D-|--4-4-4-4-4=-| (double picked strum up and down)
(vocals then repeat that once once)

then:

1st guitar:
(same as in pre-chorus)

2nd guitar (I think it might have an effect on it, not sure):

E-|---------------------------------|
B-|---------------------------------|
G-|---------------------------------|
D-|--4-6-7-9-6-8-9-11-8-10-11-13-10-|
A-|---------------------------------|
D-|---------------------------------|

(Chorus) repeat twice

ending:

E-|------------------------------------------|
B-|------------------------------------------|
G-|------------------------------------------|
D-|--4-6-7-9-6-8-9-11-8-10-11-13-10/20h22p20-|
A-|------------------------------------------|
D-|------------------------------------------|

Comments about this tab

LC7rock - 2008-10-25

Sorry to tell you... but the tab is off... but keep trying!!!

Try this...

D E F Bb E F F E F

It will make the intro sound much better...:)


Add a comment/correction

Complimentary Christian Ringtones
Dadamobile and CGR have teamed up to bring your favorite Christian artists right to your phone. Sign up today and get 10 complementary ringtones!
Tab Country
Did you know CGR has a sister site w/ country guitar tabs? Well we do! Its called Tab Country. It has a great archive with a lot of country tabs.
Rockin Tabs
Are you looking for a site that has rock guitar tabs? Then Rockintabs.com is the place for you. It is a budding site with many rock guitar tabs. Submit your tab today.
Tab Gallery
Tab Gallery has a compilation of christian, rock, and country tabs all in one place. Come visit us.