Guitar Tabs
song title    band name

Join Us Today!

Don't strum alone...
be a part of the largest online Christian music community. Browse thousands of guitar tabs and chat w/ musicians like yourself.


It's Free!

This tab has been rated a 5.00 out of 5 for accuracy. (1 vote)Sorry, but you must be logged in to rate this tab.
Click here to log-in, or you can click here to register.
(Registration is free)

All songs owned by corresponding publishing company. If you make copies of any song on this website, be sure to report your usage to CCLI.
Submitted by: Cheese_Monkey

Song: All to You
Artist: Lincoln Brewster
Tabbed By: Cheese_monkey

When i first heard this song my thoughts were "i'm gonna tab that!"
so here it is!

Standard tuning

Chords used in this song:
   E5  Bsus4   C#m7  A2 D6sus2 F#11
e--0----0-0----0-0---0----0-----0-
B--0----0-0----0-0---0----0-----0-
G--9----4-9----6-9---2----7-----3-
D--9----4-9----6-9---2----7-----4-
A--7----2-x----4-x---0----5-----4-
E--0------7------9--------------2-
        or      or

Intro:
e-0-0-00-0-0-0-00-00-0-0-0-0-0-0-00-00-|
B-0-0-00-0-0-0-00-00-0-0-0-0-0-0-00-00-|
G-9-9-99-8-8-8-88-88-9-9-9-2-2-2-22-22-|
D-9-9-99-9-9-9-99-99-9-9-9-2-2-2-22-22-|
A-7-7-77-x-x-x-xx-xx-x-x-x-0-0-0-00-00-|
E--------7-7-7-77-77-9-9-9-------------|

Guitar in background:

e----------------------|
B----------------------|
G----------------------|
D----------------------|
A-7-9-11-6----4-6-7-0--|
E----------------------|

Verse: E5  Bsus4   C#m7  A2

Pre Chorus:  A2   Bsus4   E5   D6sus2   A2

Chorus:  E5  Bsus4   C#m7  A2 x2      E5  Bsus4  C#m7  Bsus4  A2  F#11

Solo:  C#m7   F#11



That's pretty much it!  Any questions comments and concerns either leave a 
comment or email me at timistheman99@hotmail.com!  

God Bless,
Tim Lahn (Cheese_monkey)

Comments about this tab

No comments/corrections found. Add your own

Complimentary Christian Ringtones
Dadamobile and CGR have teamed up to bring your favorite Christian artists right to your phone. Sign up today and get 10 complementary ringtones!
Tab Country
Did you know CGR has a sister site w/ country guitar tabs? Well we do! Its called Tab Country. It has a great archive with a lot of country tabs.
Rockin Tabs
Are you looking for a site that has rock guitar tabs? Then Rockintabs.com is the place for you. It is a budding site with many rock guitar tabs. Submit your tab today.
Tab Gallery
Tab Gallery has a compilation of christian, rock, and country tabs all in one place. Come visit us.